Song name
# A B C D E F G H I J K L M N O P Q R S T U V W X Y Z

Jill Sobule - I Kissed A Girl tab

 From: bemont@austin.asc.slb.com

"I Kissed a Girl" - Jill Scobeel(sp?)

I am not sure about the spelling of the singer's name... please correct me.
Jill, forgive me :).

As always, I've tried to represent timing as best I can.

Any corrections welcome.  I'm still pretty new at this.  It's still hard for
me to hear chords...  but this sounds good to me.


I: (intro, chorus, solo, outro)

e-|--------3-----3--3--3-----|--------3--3--------3--3--|
B-|--------3-----3--3--3-----|--------3--3--------3--3--|
G-|--------0-----0--0--0-----|--------0--0--------0--0--|
D-|--------------------------|--------------------------|
A-|--------------------------|--3-----------2-----------|
E-|--3-----------------------|--------------------------|


e-|--------3-----3--3--3-----|--------3-----------------|
B-|--------3-----3--3--3-----|--------3-----------------|
G-|--------0-----0--0--0-----|--------0-----------------|
D-|--------------------------|--------------------------|
A-|--0-----------------------|--0--------------2-h3-p2--|
E-|--------------------------|--------------------------|

II: (verse)

|  G  |  C  | Am  |  G  |

III: (prechorus)

|  Am |  Em | Am  |  Em |

IV: (bridge)

|  C  |  C  |  D  |  D  |



Tap to rate this tab
 
# A B C D E F G H I J K L M N O P Q R S T U V W X Y Z