Song name
# A B C D E F G H I J K L M N O P Q R S T U V W X Y Z

Jim Croce - These Dreams tab

Song:     These Dreams
Artist:   Jim Croce

Standered eADGBE tuning

    ---------------------------------------------------------------------

This tab is absolutely perfect!

If you have any queries  contact me



e||------------0---1----------|---------0---1-----0---|--------------3-----|
A||*--------3------------3----|------3--------------3-|-2----3----5--5-----|
D||------2-------------2---2--|---0------------0------|---0----0-----0-----|
G||---0-----------------------|-----------------------|--------------------|
B||*---------------3----------|-1---------------------|-0----2----4--4-----|
E||---------------------------|-------------3---------|--------------------|


e|----1-0h1---------------|----------------0---|-1----0--------0-----|     
A|----------3-------------|-----3--------3-----|----------3----------|
D|------------2-----------|---0---0----0-------|----0---0----0---0---|
G|-0-------------3-2h3-0--|--------------------|-0-------------------|
B|------------------------|-1------------------|------3---1----3-----|
E|------------------------|----------3---------|---------------------|


e|-1-----0-------------|-------0--------------0-|------2-------2----|    
A|------------3--3-----|----------3--2h3p0-0----|------3-------3----|
D|----0----0--------0--|-----0-------0----------|----2---2---0----0-|
G|-0-------------------|------------------------|--0----------------|
B|-------3----1--------|-------------0----------|----------2--------|
E|---------------3-----|--0---------------------|-------------------|

e|------0------------0---|-2--------2-------2---|----------2----------3-|    
A|--------3--3--2h3------|-3-----3--------3-----|-------3-----------3---|
D|---0-------0-----------|-2--2---------2-------|----0----------0-------|
G|-----------------------|-0--------------------|-----------------------|
B|-----------0-----------|------------4---------|--2----------0---------|
E|-0---------------------|----------------------|-----------------------|


e|--------3-------2---|---------------0-----|------0---------------|    
A|------0-------3-----|--------0----0---0---|-0h2----0--3---5------|
D|----0-------2-------|------0---0----------|-0-----------0----0---|
G|--------------------|----2----------------|----------------------|
B|--------------------|---------------------|-0---------2---4------|
E|-3-------2----------|-0-------------------|----------------------|


e|-2------2-----------|------0--------------0---|-1-0----0------------2-|    
A|-3----3-------------|--------3--3--2h3--0----*|-3---3--1--3-1----2--3-|
D|-2--2---------------|---0-------0-------------|-2------0------2-----2-|
G|-0------------0-----|-------------------------|-0----------------2--0-|
B|---------0h2-----2--|-----------0------------*|--------3------1-------|
E|--------------------|-0-----------------------|-----------------------|




Tabbed by:
Peter O'M



Tap to rate this tab
# A B C D E F G H I J K L M N O P Q R S T U V W X Y Z