Guitaretab - guitar tabs
Song name
# A B C D E F G H I J K L M N O P Q R S T U V W X Y Z

Jim Croce - Birthday Song tab

THE BIRTHDAY SONG - JIM CROCE
Tabbed by:Aaron James Bodoraya
Email:combat_ron33@yahoo.com

[ Tab from: http://www.guitaretab.com/j/jim-croce/139769.html ]
INTRO/VERSE:
    AM7                          Bm7
e|---4-----------4-4/57\5---|----7----------------------|
B|---5----5-5-7--------------|----7-----------7-7/9------|
G|---6-----------------------|----7----7-7-9-------------|
D|---7-----------------------|----7----------------------|
A|---------------------------|----9----------------------|
E|---------------------------|----7----------------------|
    AM7                          Bm7
e|---4----------------4------|----2----------------------|
B|---5----------5-7-----7----|----3----------------------|
G|---6----6-6-7--------------|----2----4-4-6-7-7/9-------|
D|---7-----------------------|----4----------------------|
A|---------------------------|----2----------------------|
E|---------------------------|---------------------------|
     AM7                         Bm7
e|----4----------4-4-5--7-5--|----7----------------------|
B|----5----5-5-7-------------|----7----------7-7/10------|
G|----6----------------------|----7----7-7-9-------------|
D|----7----------------------|----7----------------------|
A|---------------------------|----9----------------------|
E|---------------------------|----7----------------------|
  
CHORUS:
AM7
e|-------------------------------------------------------|
B|-------------------------------------------------------|
G|--9--9------9-9--9--9--9------9--9/11--11--9--9-------|
D|--9--9--11--9--------9-9--11-9--9-----11--9--9-------|
A|--------11-----------------11--------------------------|
E|-------------------------------------------------------|
   AM7
e|-------------------------------------------------------|
B|------------------------------------------12/14-12----|
G|--9--11--9--------9--9------11--9--9-----------------9-|
D|--9--11--9-9/11--------11--11--9--9--11---------------|
A|-------------------------------------------------------|
E|-------------------------------------------------------|
Related for Birthday Song tab