Song name
# A B C D E F G H I J K L M N O P Q R S T U V W X Y Z

Jim Croce - Next Time This Time tab

Next time this time
by: jim croce


Capo 5th
Intro
G
e|-----------------|
B|-0-----0---------|
G|-----0-----------|
D|---0-------------|
A|-----------------|
E|-3---------------|


G/Bb

e|-----------------|
B|-0---------------|
G|-----2-----------|
D|---0-------------|
A|-----------------|
E|-1---------------|


E7

e|-----------------|
B|-3-0-1-3---------|
G|-1-1-2-4---------|
D|-----------------|
A|-----------------|
E|-0---------------|


Am

e|-0-----0---------|
B|-----1-----------|
G|---2-------------|
D|-----------------|
A|-0---------------|
E|-----------------|


GD/F#EmBm

e|-0-----2-0-------|
B|---0-------0---3-|
G|-----2-------4---|
D|-----------------|
A|-------------2---|
E|-3---2---0-------|


C

e|---------0-------|
B|-----1-----------|
G|---0-------------|
D|---------0h2-----|
A|-3-----3---------|
E|-------------3---|


D7

e|-0-----0-3-0-----|
B|-----1-------1---|
G|---2-----------2-|
D|-0---------------|
A|-----------------|
E|-----------------|

Stanza:

(Do intro except C next to B7) as in
(G-G/Bb-E7-Am-GD/F#EmBm-C-B7)
Followed by:

EmD/F#GG/B

e|-----0-----------|
B|-------0---------|
G|-0-2-----0-------|
D|-----------------|
A|---------2-------|
E|-0-2-3-----------| A7-D7-C-G

Chorus:
G---
C   e|-3-----3---------|
    B|---0-----0-----0-|
    G|-----0-----0h2---|
    D|-----------------|
    A|-3---------------|
    E|-------3---------|
G---
D   e|---2-----0------------|
    B|----------------------|
    G|-----2p0---------0----|
    D|-0---------4\2-0------|
    A|----------------------|
    E|----------------------|
GG7 (32300x) C-A7-D7-------|C-G
      EADGBe
(2x all chorus)and last part of chorus: GDCD-C-


Thats all thank you!






Note: this tab is not really perfect than Maury Muehleisen did. However, most of them 
has a big idea for you, so do it with your sense of hearing.
Tap to rate this tab
 
# A B C D E F G H I J K L M N O P Q R S T U V W X Y Z