Song name
# A B C D E F G H I J K L M N O P Q R S T U V W X Y Z

Jim Croce - Photographs And Memories tab

"Photographs And Memories"
 - Written by Jim Croce

Tabbed by Nellie Wilson
(xnelliewilsonx@gmail.com)

Solo:

 E|-------------------|
 B|-------------------|
 G|-------------------|
 D|---5---------------|
 A|-----5-5-----7-7~--|
 E|---------7/9-------|

 E|-------------------|
 B|-------------------|
 G|-------------4-4~--|
 D|-----5-4-5-7-------|
 A|---5---------------|
 E|-------------------|

 E|-------------------|
 B|-------------------|
 G|----4-5-4--4-------|
 D|---7-----7--4-7-5--|
 A|-------------------|
 E|-------------------|

 E|-------------------|
 B|-------------------|
 G|-------------------|
 D|-----------7-7-----|
 A|---5-5-5/7---------|
 E|-------------------|

 E|-------------------|
 B|-------------------|
 G|-------------------|
 D|---5-4-------------|
 A|-------7-5~--------|
 E|-------------------|
Tap to rate this tab
 
# A B C D E F G H I J K L M N O P Q R S T U V W X Y Z