Song name
# A B C D E F G H I J K L M N O P Q R S T U V W X Y Z

Jim Jones - We Fly High tab

Tabbed by: Ryan A

Yo this is my first tab i made and i cant seem to get my account on UG working. Please rate good

Standard Tuning

INTRO/CHORUS:

e|---3---4---3-----4---3-----4---3---1-----3---4---6-----4---3-----3---4---|
B|-------------------------------------------------------------------------|
G|-------------------------------------------------------------------------|
D|-------------------------------------------------------------------------|
A|-------------------------------------------------------------------------|
E|-------------------------------------------------------------------------|

INTRO/CHORUS cont:

e|-------------------------------------------------------------------------|
B|---1---------------------------------------------------------------------|
G|-------------------------------------------------------------------------|
D|-------------------------------------------------------------------------|
A|-------------------------------------------------------------------------|
E|-------------------------------------------------------------------------|

VERSE:

P.M  .  .            .  .            .  .          .  .
e|----------3--4-----------3--4------------3--4----------3-----------------|
B|---1--1------------1--1------------1--1----------1--1--------------------|
G|-------------------------------------------------------------------------|
D|-------------------------------------------------------------------------|
A|-------------------------------------------------------------------------|
E|-------------------------------------------------------------------------|


This song has the sickest beat and its very easy to play. hope you guys like this tab. PEACE OUT
Tap to rate this tab
# A B C D E F G H I J K L M N O P Q R S T U V W X Y Z