Guitaretab - guitar tabs
Song name
# A B C D E F G H I J K L M N O P Q R S T U V W X Y Z

Jim Noir - My Patch tab

It was annoying me that no one had made n e thing for this song so im gonna try do something:

The C7 can be played like this:
|--3--|     	|--8--|
|--5--|		|--8--|
|--3--|	    or	|--9--|
|--5--|		|--8--|
|--3--|		|--10-|
|--X--|		|--8--|

The F7 can be played like this:
|--5--|		|--8--|		
|--4--|		|--10-|		
|--5--|	    or	|--8--|	   
|--3--|		|--10-|		
|--X--|		|--8--|		
|--X--|		|--X--|		

Intro: not sure if its completely perfect but it sounds right
|---------------------------------------------------------------------------|  
|---------------------------------------------------------------------------|*2
|----9--------9------9--------9--------8---------8---------8--------8-------|      
|---------------------------------------------------------------------------|
|------------------------------------------8--------8---------8---------8---|
|--8----6-H8----6-H8----6-H8----6----5--------5--------5---------5----------|

H=hammer on

[ Tab from: http://www.guitaretab.com/j/jim-noir/179401.html ]
Riff 1 (played throughout song):
|--12--10--8--6--5--3--1----------------------------------------------------|
|------------------------------4^--1----4^--1--4^--1---1-4^--1-4^--1--------|
|---------------------------------------------------------------------------|
|---------------------------------------------------------------------------|
|---------------------------------------------------------------------------|
|---------------------------------------------------------------------------|
^=bend up   


Intro:
C7 F7 C7 F7

C7		               F7
If you ever step on my patch 
C7
I'll bring you down 
              F7
I'll bring you down


Bridge (in the middle):
Each chord for 4 beats:
F7      A#7      CM7      C7
F7      A#7      CM7      C7
F7      A#7      CM7      C7


  F7           A#7          CM7          C7
|--1--|      |--1--|      |--3--|      |--3--|
|--1--|      |--3--|      |--5--|      |--5--|
|--2--|      |--1--|      |--4--|      |--3--|
|--1--|      |--3--|      |--5--|      |--5--|
|--3--|      |--1--|      |--3--|      |--3--|
|--1--|      |--X--|      |--X--|      |--X--|




The rest is fairly easy just alternating back and forth from C7 to F7
Related for My Patch tab
Advertisement will be closed in 10 seconds