Song name
# A B C D E F G H I J K L M N O P Q R S T U V W X Y Z

Jim Noir - Turbulent Weather chords

Highlighted       Show chord diagrams
Basic Chord Progression:
Verse  Bb Dm Ab Eb
       Bb Dm Ab Eb
Chorus Bb Gm Bb Gm
       Bb Gm C  Eb

Verse 1:
Bb              Dm
   When we get together
          Ab                   Eb
I always hope there'll be nice weather
        Bb                   Dm
Between us, there's nothing worse
               Ab          Eb               Bb
Than when you turn into a thunderstorm with me


Chorus:
              Gm         Bb
    How do I help you?
                    Gm        Bb
    And how do you help me?
                    Gm
    We'll buy an umbrella
            C                      Eb
    And we might be safe from the turbulent weather


Instrumental Solo:
Bb Dm Ab Eb (2x)    


Repeat Chorus:
          Gm         Bb
How do I help you?
                Gm        Bb
And how do you help me?
                Gm
We'll buy an umbrella
        C                      Eb
And we might be safe from the turbulent weather


Outro:
Bb Dm Bb Dm(8x)
oooohh  ohhh oohh oooh ohhhh



Instrumental Solo in the Middle (not super great, but welcoming any improvements)

e|----------10-----------10-13----11--10-----------------------------|
B|-------11-------11-13-------------------13--11-----------11--------|
G|-10-12------------------------------------------12-11-12-----------|
D|-------------------------------------------------------------------|
A|-------------------------------------------------------------------|
E|-------------------------------------------------------------------|

e|----------10----------15-13-----15--13--10------------13-10--------|
B|-------11-------11-13-----------------------13--11-----------------|
G|-10-12---------------------------------------------12--------------|
D|-------------------------------------------------------------------|
A|-------------------------------------------------------------------|
E|-------------------------------------------------------------------|
Tap to rate this tab
# A B C D E F G H I J K L M N O P Q R S T U V W X Y Z