Song name
# A B C D E F G H I J K L M N O P Q R S T U V W X Y Z

Jim Noir - Eanie Meany tab

----------------------------------------------------------------------------
			    EANIE MEANY - Jim Noir
----------------------------------------------------------------------------

Tabbed by: Claire Winter
Email: mr_claire@hotmail.com

Tuning: EADGBE

The part of Guitar 1 in the intro is repeated throughout the song - it's basically just 
chords in the following pattern: D#, C#, G#, D#, C#, G#, D#. It is played as below!

Intro:

| Guitar 1
| E|---------------------------------------------------|
| B|------------6-----------8--6-6---------------------|
| G|-----8------6---5-5--8--8--6-6----5--5---8-8--8-8--|
| D|-----8----------6-6--8------------6--6---8-8--8-8--|
| A|--6----6-4----4------6-----4----4--------6----6-6--|
| E|----------------4-----------------4----4-----------|
|
| Guitar 2:
| E|-----------------------------------------------------|
| B|-----------------------------------------------------|
| G|---------------------------6/8-----------------------|
| D|--8----6-5----6-8-6--5------------10-8-6-8--(8)-(8)--|
| A|-----------------------------------------------------|
| E|-----------------------------------------------------|


| Guitar 1
| E|---------------------------------------------------|
| B|----------6-6--------------6-6-6-------------------|
| G|-----8--8-6-6---5-5--8--8--6-6-6--5--5--8-8---8-8--|
| D|-----8--8-------6-6--8--8---------6--6--8-8---8-8--|
| A|--6-----6-4---4------6-----4---4--------6---6-6-6--|
| E|----------------4-4---------------4----------------|
|
| Guitar 2
| E|---------------------------------------------------|
| B|---------------------------------------------------|
| G|------------------6--8----6/8-6---6-8--/8----------|
| D|--8-----6-5---6/8---------------8------------------|
| A|---------------------------------------------------|
| E|---------------------------------------------------|

Rest of song:
E|---------------------------------------------------|
B|------------6-----------8--6-6---------------------|
G|-----8------6---5-5--8--8--6-6----5--5---8-8--8-8--|
D|-----8----------6-6--8------------6--6---8-8--8-8--|
A|--6----6-4----4------6-----4----4--------6----6-6--|
E|----------------4-----------------4----4-----------|

E|---------------------------------------------------|
B|----------6-6--------------6-6-6-------------------|
G|-----8--8-6-6---5-5--8--8--6-6-6--5--5--8-8---8-8--|
D|-----8--8-------6-6--8--8---------6--6--8-8---8-8--|
A|--6-----6-4---4------6-----4---4--------6---6-6-6--|
E|----------------4-4---------------4----------------|


If you don't give my football back, I'm gonna get my dad on you
I only kicked it over your fence and broke a silly gnome or two

Eanie meany, run away
Eanie meany run away

Eanie meany, run away
Eanie, run away
Steal my football, run away
I'll get it back some day


| /  slide up
| \  slide down
| h  hammer-on
| p  pull-off
| ~  vibrato
| +  harmonic
| x  Mute note
| () Ghost note
============================================================================
Tap to rate this tab
 
# A B C D E F G H I J K L M N O P Q R S T U V W X Y Z