Song name
# A B C D E F G H I J K L M N O P Q R S T U V W X Y Z

Jim Noir - Turn Your Frown Into A Smile tab

----------------------------------------------------------------------------
                  Turn Your Frown Into A Smile - Jim Noir
----------------------------------------------------------------------------

Tabbed by: Claire Winter
Email: mr_claire@hotmail.com
Tuning: EADGBE
email me with any questions!

Intro and verses:

E|--4-----/8--8---6-----------------4----|
B|----4-----------6----9-8-6-8--4---4----|
G|------5--8----6---8----6-6-6----5---5--|
D|------------6--------------------------|
A|---------------------6-----------------|
E|--4---------------------------4--------|

E|--4-----/8--8---6-------------4------|
B|----4-----------6----9-8-6-8----4----|
G|------5--8----6---8----6-6-6------5--|   
D|------------6------------------------|    REPEAT THROUGHOUT
A|---------------------6---------------|
E|--4---------------------------4------|

Chorus:

E|----8-8--------9-9----------11-11------8-8--|
B|----9-9--------9-9----------11-11------9-9--|
G|--8-----8-8/10-----10-10/12-------10-8------|
D|--------------------------------------------|
A|--------------------------------------------|
E|--------------------------------------------|

Bridge:

E|--11--11-11--11-11-11-11-11--11--11-11--11-11-11-11-11--|
B|--9---9--9---9--9--9--9--9---9---9--9---9--9--9--9--9---|
G|--10--10-10--10-10-10-10-10--9---9--9---9--9--9--9--9---|
D|--------------------------------------------------------|
A|--------------------------------------------------------|
E|--------------------------------------------------------|

E|--11--11-11--11-11-11-11-11--11--11-11--11-11-11-11-11--|
B|--11--11-11--11-11-11-11-11--8---8--8---8--8--8--8--8---|
G|--8---8--8---8--8--8--8--8---8---8--8---8--8--8--8--8---|
D|--------------------------------------------------------|
A|--------------------------------------------------------|
E|--------------------------------------------------------|

Played at 03:40:

E|--------9/11-13/15-16\15--------------10/11-13/15-13\11-----------------|
B|--10/13------------------16-15-12--13-------------------15\14-13-11-----|
G|--------------------------------------------------------------------13--|
D|------------------------------------------------------------------------|
A|------------------------------------------------------------------------|
E|------------------------------------------------------------------------|



| /  slide up
| \  slide down
| h  hammer-on
| p  pull-off
| ~  vibrato
| +  harmonic
| x  Mute note
============================================================================
Tap to rate this tab
# A B C D E F G H I J K L M N O P Q R S T U V W X Y Z