Song name
# A B C D E F G H I J K L M N O P Q R S T U V W X Y Z

Jim Noir - Computer Song tab

----------------------------------------------------------------------------
			  COMPUTER SONG - Jim Noir
----------------------------------------------------------------------------

Tabbed by: Claire Winter
Email: mr_claire@hotmail.com

Tuning: EADGBE

Majority of the song:
E|--------------------------------------------------------------------|
B|----6---6---6---6---6---6---6---6----5---5---5---5---5---5---5---5--|
G|----6---6---6---6---6---6---6---6----6---6---6---6---6---6---6---6--|
D|--------------------------------------------------------------------|
A|------8-------8-------8-------8--------7-------7-------7-------7----|
E|--6-------6-------6-------6--------5-------5-------5-------5--------|

E|--------------------------------------------------------------------|
B|----6---6---6---6---6---6---6---6----4---4---4---4---2---2---2---2--|
G|----6---6---6---6---6---6---6---6----4---4---4---4---3---3---3---3--|
D|--------------------------------------------------------------------|
A|--4-------4-------4-------4--------2-------2-----------4-------4----|
E|------4-------4-------4-------4--------2-------2---2-------2--------|


   Everytime i try to make a silly little song...
E|-----------------------------------------------------1-----1--|
B|--------1-----1--------2-----2--------1-----1------2---2------|
G|------2---2----------3---3----------2---2--------3-------3----|
D|----3-------3------3-------3------3-------3----3--------------|
A|--3--------------1--------------3-----------------------------|
E|--------------------------------------------------------------|
 
   My efforts are all wasted cos machinary goes wrong.
E|----------------------------------------------------------|
B|--------1-----1--------2-----2--4-----4-----4--6-----6----|
G|------2---2----------3---3----------5---5----------6---6--|
D|----3-------3------3-------3------6-------6------6--------|
A|--3--------------1--------------6--------------8----------|
E|----------------------------------------------------------|


The moment I switch you on 
You sing your song and i know it won't be long 
Until you're going wrong 
and you make me cry and I don't know why 
I try control delete but it makes me upset when I have to re-set your mind 
Oh no you're turning blue, just tell me straight or do I have to wait 

Every time I try to make a silly little song 
My efforts are all wasted cos machinery goes wrong 

============================================================================
Tap to rate this tab
 
# A B C D E F G H I J K L M N O P Q R S T U V W X Y Z