Song name
# A B C D E F G H I J K L M N O P Q R S T U V W X Y Z

Jim Orourke - Theres Hell In Hello But More In Goodbye tab

jim o'rourke - there's hell in hello, but more in goodbye..

 


|3-----2---0-----|----------------|----------------|----------------|
|----------------|3---------3-----|0---------3-----|0---------------|
|----------------|------2---------|------2---------|----------0-----|
|----0-------0---|----0-------0---|----0-------0---|----0-2-----0-0-|
|----------------|----------------|----------------|----------------|
|3-------3-------|3-------3-------|3-------3-------|3-------3-------|


|----3---2---0---|----------------|----------------|----------------|
|----------------|3---------3-----|0---------0-----|----------------|
|----------------|------2---------|------2---------|0---------0-----|
|----0-------0---|----0-------0---|----0-------0---|----0-0-----0---|
|----------------|----------------|----------------|----------------|
|3-------3-------|3-------3-------|3-------3-------|3-------3-------|


|----------------|----------------|----------------|----------------|
|----------------|------------0---|----------------|----------------|
|------0---------|------3---------|0---------------|0---------0-----|
|4-----------4---|2---------------|----0-2---0-0---|------0-0-------|
|----------------|----------------|----------------|----------------|
|3---------------|3---------------|3-------3-------|----3-------3---|


|----------------|------------0---|----------------|----------------|
|----------------|--------0-------|3---------0-----|----------------|
|------0---------|----3-----------|------2---------|0---------0-----|
|4---------4-----|2---------------|----0-------0---|--0-0-0-----0-0-|
|----------------|----------------|----------------|----------------|
|3-----------3---|3---------------|3-------3-------|3-------3-------|

 

 

|----3---2---0---|----------------|----------------|----------------|
|----0-----------|3---------3-----|0---------3-----|0---------------|
|----------------|------2---------|------2---------|----------0-----|
|----0-------0---|----0-------0---|--0-0-------0---|----0-2-----0-0-|
|----------------|----------------|----------------|----------------|
|3-------3-------|3-------3-------|3-------3-------|3-------3-------|

 

|----3---2---0---|----------------|----------------|----------------|
|----------------|3---------3-----|0---------3-----|0---------0-----|
|----------------|------2---------|------2---------|------2---------|
|----------------|----0-------0---|----0-------0---|----0-------0---|
|----------------|----------------|----------------|----------------|
|3-----3-3-------|3-------3-------|3-------3-------|3-------3-------|


|----------------|----------------|----------------|----------------|
|----------------|----------3-----|----------------|----------------|
|------0---------|------3---------|0---------------|0---------0-----|
|4---4-----4-4---|2---2-------0---|----0-2---0-----|------0---------|
|----------------|----------------|----------------|----------------|
|3-------3-------|3-------3-------|3-------3---3---|3---3---3---3---|


|----------------|------------0---|----------------|----------------|
|----------------|--------0-------|3---------0-----|----------------|
|------0---------|----3-----------|------2---------|0---------0-----|
|4---------4-----|2---------------|----0-------0---|----0-0-----0---|
|----------------|----------------|----------------|----------------|
|3---3-------3---|3---------------|3-------3-------|3-------3-------|

 

 

|----------------|----------------|----------------|----------------|
|----------------|----------------|----------------|----------------|
|------0---------|------0---------|------0---------|------0---------|
|4---------4-----|2---------2-----|2---------2-----|1---------1-----|
|----------------|----------------|----------------|----------------|
|3---3---3---3---|3---3-------3-0-|0---0---0---0---|1---1---1---1---|

 

 

|----------------|----------------|----------------|----------------|
|----------------|----0-----------|----------------|----------------|
|----------0-----|----------0-----|----0---------0-|------------0---|
|----3-------3-3-|------------3-3-|----------3-3---|----3-----------|
|----------------|----------------|----------------|----------------|
|3-------3-------|3-------3-------|3-------3-------|3-------3-------|


|----------------|----------------|----------------|----------------|
|----------------|--0-------------|----------------|----------------|
|----------0-----|------0-------0-|----------0-----|--0-------0-----|
|----3-------3-3-|----3-----3-3---|----1-------1-1-|----1-1-----1-1-|
|----------------|----------------|----------------|----------------|
|3-------3-------|3-------3-------|1-------1-------|1-------1-------|


|----------------|----------------|----------------|----------------|
|----------------|----------------|----1-0---------|----------------|
|----------0-----|----0---------0-|----------0-----|----0---------0-|
|----3-------3-3-|----------3-3---|----3-------3-3-|----------3-3---|
|----------------|----------------|----------------|----------------|
|3-------3-------|3-------3-------|3-------3-------|3-------3-------|


|----------------|----------------|----------------|----------------|
|----------------|----------------|----------------|----------------|
|----------0-----|--0-------0-----|--0-------0-----|--0-------0-----|
|----3-------3-3-|----3-3-----3-3-|----1-1-----1-1-|----1-1-----1-1-|
|----------------|----------------|----------------|----------------|
|3-------3-------|3-------3-------|1-------1-------|1-------1-------|


|----------------|----------------|----------------|----------------|
|----------------|----------------|----------------|----------------|
|--0---------0---|------0-----0---|------0-----0---|------0-------0-|
|----3-3---------|--3-3-----------|--3-3-----------|--3-3-----3-3---|
|----------------|----------------|----------------|----------------|
|3-------3-------|3-------3-------|3-------3-------|--------3-------|


|----------------|----------------|----------------|----------------|
|----------------|----------------|----------------|----------------|
|----------0-----|----0---------0-|------0-------0-|------0-------0-|
|----3-------3-3-|----------3-3---|--1-1-----1-1---|--1-1-----1-1---|
|----------------|----------------|----------------|----------------|
|3-------3-------|3-------3-------|1-------1-------|1-------1-------|


|----------------|----------------|----------------|----------------|
|----------------|----1-0---------|----------------|1-0-------------|
|----------0-----|--------------0-|----------------|----------0-----|
|----3-------3-3-|----3-----3-3---|----3-------3---|----3-3-----3-3-|
|----------------|----------------|----------------|----------------|
|3-------3-------|3-------3-------|3-------3-------|3-------3-------|


|----------------|----------------|----------------|----------------|
|----1-----------|------1---0-----|----------------|----------------|
|----------------|0---------------|----------0-----|----0-----------|
|----------3-3---|--3-3-------3-1-|----1-------1-1-|----------------|
|----------------|----------------|----------------|----------------|
|3-------3-------|3-------3-------|1-------1-------|1-------1---2-3-|

 


.....

 


|----------0-----|----0-----------|----------0-----|----------------|
|7-------------7-|----------7-----|3-------------3-|----------3-----|
|------7---------|----------------|------3---------|----3-----------|
|----0-------0---|----0-------0---|----0-------0---|----0-------0---|
|----------------|----------------|----------------|----------------|
|7-------7-------|7-------7-------|3-------3-------|3-------3-------|
                                                                                     
                                                                                     
|----------------|----0-----------|----------------|
|------0---3-----|3---------------|----------------|
|2---------------|----------------|0---------------|
|----0-------0---|2---------------|----------------|
|----------------|------------2-5-|----------------|
|2-------2-------|--------3-5-----|----------------|
                                           

|----------0-----|----------------|----------------|
|------3---------|3-------0-------|----------------|
|4---------------|----------------|0---------------|
|----0-------0---|----0---0-------|0-------0-------|
|----------------|----------------|----------------|
|3-------3-------|3-----------3---|----3-------3---|
                                                                 
                                                    

keep playing the base and add some harmonics..







jude222@naver.com                        
Tap to rate this tab
 
# A B C D E F G H I J K L M N O P Q R S T U V W X Y Z