Song name
# A B C D E F G H I J K L M N O P Q R S T U V W X Y Z

Jim Orourke - Good Times tab

towers of london-good times
e|-------------------|
B|-------------------|
G|---76----76----76--|
D|77-76-77-76-77-76--|
A|77-54-77-54-77-54--|
E|55----55----55-----|
0:00-0:10


e|------------------|
B|------------------|
G|---77-66-44-------|
D|77-77-66-44-------|
A|77-55-44-22-------|
E|55----------------|
0:10-0:29


e|---------------------|
B|---------------------|
G|---77-66-44----------|
D|77-77-66-44-77777777-|
A|77-55-44-22-77777777-|
E|55----------55555555-|
0:29-0:34

ill do the rest of it when i can be asked but it sounds right to me long live towers!!!!!!

if any1 wants to join me by making more towers of london tabs my addy is 
            thanks :)
Tap to rate this tab
 
# A B C D E F G H I J K L M N O P Q R S T U V W X Y Z