Song name
# A B C D E F G H I J K L M N O P Q R S T U V W X Y Z

Jim Reeves - White Christmas tab

-------------------------------------------------------------------------------
			     White Christmas - Jim Reeves
-------------------------------------------------------------------------------
Tabbed by: techno-rachit
Email: koolguyrachit@live.com

Tuning: Standard

E|-------------------|--------------|------------------------------------------|
B|-------------------|---0-1-3-1-0--|--------------1-1-1-1---------------------|
G|-------------------|-2------------|----------2-0---------0-------------------|
D|-2-2-3-2-1-2-3-4-5-|--------------|----0-2-2---------------3-2-2-3-2-0---0---|
A|-------------------|--------------|--3---------------------------------3-----|
E|-------------------|--------------|------------------------------------------|
  I am dreaming of a  Just like      Where the three tops glisten & chlidren
  White Christmas.     the one I     listen.I hear sledge bells in the snow.
                      used to know.


E|-------------------|
B|-------------------|
G|-------------------|
D|-2-2-3-2-1-2-3-4-5-|
A|-------------------|
E|-------------------|
  I am dreaming of a  
  White Christmas.  


E|---------------------------|---------------------------------|
B|---0-1-3-1-0---3--1-0------|-------------1-------------------|
G|-2-----------2--------2-0--|---------2-0-----------2---------|
D|---------------------------|---0-2-2---------0-2-2---3-0-----|
A|---------------------------|-3-------------3-------------2-3-|
E|---------------------------|---------------------------------|
  With every christmas card   May your days be merry and bright
  I write.                    when they all know Christmas is 
                              been a while.


Tap to rate this tab
# A B C D E F G H I J K L M N O P Q R S T U V W X Y Z