Song name
# A B C D E F G H I J K L M N O P Q R S T U V W X Y Z

Jim Steinman - Einladung Zum Ball tab

00:35
(clean)
|-----|-----|
|--0--|--0--|
|--0--|--0--|
|--2--|--2--|
|-----|-----|
|-----|-----|

00:57
(overdrive)
|--------|-----|-----|-----|-----|-----|--------|--------|--------|--------|
|--------|-----|-----|-----|-----|-----|--------|--------|--------|--------|
|--------|-----|-----|-----|-----|-----|--------|--------|--------|--------|
|--2-----|-----|-----|-----|-----|-----|--4-----|--0-----|--4-----|--0--2--|
|-----4--|--2--|--4--|--2--|--4--|--2--|-----4--|-----0--|-----4--|--------|
|--------|-----|-----|-----|-----|-----|--------|--------|--------|--------|

|-----|-----|----------|-----|-----|-----|-----|-----|-----|-----|----------|
|-----|-----|----------|-----|--0--|-----|-----|-----|-----|-----|----------|
|--2--|-----|--2--2-1--|-----|-----|-----|--0--|-----|--2--|-----|--2--2-1--|
|-----|--0--|----------|--4--|-----|--2--|-----|--2--|-----|--0--|----------|
|-----|-----|----------|-----|-----|-----|-----|-----|-----|-----|----------|
|-----|-----|----------|-----|-----|-----|-----|-----|-----|-----|----------|

|-----|-----|-----|-----|--------|
|-----|--0--|-----|-----|--0-----|
|-----|-----|-----|--0--|--------|
|--4--|-----|--2--|-----|--------|
|-----|-----|-----|-----|--------|
|-----|-----|-----|-----|--------|
Tap to rate this tab
# A B C D E F G H I J K L M N O P Q R S T U V W X Y Z