Song name
# A B C D E F G H I J K L M N O P Q R S T U V W X Y Z

Jim Ward - Broken Songs tab

Tabbed by: Kyle
Email: ultimate-guitar@azz80v.com

Tuning: Standard

Ensure you listen to the song for the strumming pattern as this is only a very basic outline.

e|---------------------------------------------------------------------------|
B|---------------------------------------------------------------------------|
G|-7---4---2---4-------------------------------------------------------------|
D|-0---0---0---0-------------------------------------------------------------|
A|-x---x---x---x-------------------------------------------------------------|
E|-7---3---2---3-------------------------------------------------------------|
I'm not too comfortable to fall from the start
Well, I don't find success interesting as art

e|---------------------------------------------------------------------------|
B|---------------------------------------------------------------------------|
G|-4---11---4---11-----------------------------------------------------------|
D|-0---0----0---0------------------------------------------------------------|
A|-x---x----x---x------------------------------------------------------------|
E|-3---10---3---10-----------------------------------------------------------|
But I'll build a home
In these broken songs 

e|---------------------------------------------------------------------------|
B|---------------------------------------------------------------------------|
G|-12---11---6-----------------11---6---4------------------------------------|
D|-0----0----0-----------------0----0---0------------------------------------|
A|-x----x----x-----------------x----x---x------------------------------------|
E|-12---10---5-----------------10---5---3------------------------------------|
  Like you said I should......Like you understood  



e|---------------------------------------------------------------------------|
B|---------------------------------------------------------------------------|
G|-7---4---2---4-------------------------------------------------------------|
D|-0---0---0---0-------------------------------------------------------------|
A|-x---x---x---x-------------------------------------------------------------|
E|-7---3---2---3-------------------------------------------------------------|
I'm not too comfortable to fall from the start
When it gets too intimate, then I fall apart

e|---------------------------------------------------------------------------|
B|---------------------------------------------------------------------------|
G|-4---11---4---4---11---4---------------------------------------------------|
D|-0---0----0---0---0----0---------------------------------------------------|
A|-x---x----x---x---x----x---------------------------------------------------|
E|-3---10---3---3---10---3---------------------------------------------------|
And i carry on
Singing broken songs

e|---------------------------------------------------------------------------|
B|---------------------------------------------------------------------------|
G|-12---11---6-----------------11---6---4------------------------------------|
D|-0----0----0-----------------0----0---0------------------------------------|
A|-x----x----x-----------------x----x---x------------------------------------|
E|-12---10---5-----------------10---5---3------------------------------------|
  Like you said I should......Like you understood 



e|---------------------------------------------------------------------------|
B|---------------------------------------------------------------------------|
G|-7---4---7---4-------------------------------------------------------------|
D|-0---0---0---0-------------------------------------------------------------|
A|-x---x---x---x-------------------------------------------------------------|
E|-7---3---7---3-------------------------------------------------------------|



e|---------------------------------------------------------------------------|
B|---------------------------------------------------------------------------|
G|-4---11---4---11-----------------------------------------------------------|
D|-0---0----0---0------------------------------------------------------------|
A|-x---x----x---x------------------------------------------------------------|
E|-3---10---3---10-----------------------------------------------------------|
But I'll build a home
In these broken songs

e|---------------------------------------------------------------------------|
B|---------------------------------------------------------------------------|
G|-12---11---6-----------------11---6---4------------------------------------|
D|-0----0----0-----------------0----0---0------------------------------------|
A|-x----x----x-----------------x----x---x------------------------------------|
E|-12---10---5-----------------10---5---3------------------------------------|
  Like you said I should......Like you understood  



e|---------------------------------------------------------------------------|
B|---------------------------------------------------------------------------|
G|-7---4---2---4-------------------------------------------------------------|
D|-0---0---0---0-------------------------------------------------------------|
A|-x---x---x---x-------------------------------------------------------------|
E|-7---3---2---3-------------------------------------------------------------|
I'm not too comfortable to fall from the start
Tap to rate this tab
# A B C D E F G H I J K L M N O P Q R S T U V W X Y Z