Song name
# A B C D E F G H I J K L M N O P Q R S T U V W X Y Z

Jim Ward - Broken Songs tab

Capo 4th

relative to capo:


INTRO:
E|----------||
B|-0--------||
G|-0--------||
D|-5--------||
A|-7--------||
E|-0--------||



VERSE:

.....im not too comfortable,too far from the start..
E|---------------------------------------------------|
B|-0------------0----------------------------0-------|
G|-0------------0------------0---------------0-------|
D|-5------------2------------0---------------2-------|
A|-7------------3------------2---------------3-------|
E|-0------------0------------3---------------0-------|



...well i dont find success interesting as art..
E|---------------------------------------------------|
B|-0----------------0-----------------------0--------|
G|-0----------------0------------0----------0--------|
D|-5----------------2------------0----------2--------|
A|-7----------------3------------2----------3--------|
E|-0----------------0------------3----------0--------|




CHORUS:

...but ill build a home,   in these broken songs..
E|---------------------------------------------------|
B|--0--------------0-----------------------0---------|
G|--0--------------4-----------------0-----4---------|
D|--2--------------5-----------------2-----5---------|
A|--3--------------5-----------------3-----5---------|
E|--0--------------0-----------------3-----0---------|


...like you said i  should, like you understood..
E|---------------------------------------------------|
B|-----------0---0--0--------------------------------|
G|-----------5---4--0----------------0--0--0---------|
D|-----------7---5--4----------------5--4--2---------|
A|-----------7---5--5----------------7--5--3---------|
E|------------------5----------------7--5--3---------|




LINK:
E|----------||
B|-0--------||
G|-0--------||
D|-5--------||
A|-7--------||
E|----------||



VERSE:

.....im not too comfortable,too far from the start..
E|---------------------------------------------------|
B|-0------------0----------------------------0-------|
G|-0------------0------------0---------------0-------|
D|-5------------2------------0---------------2-------|
A|-7------------3------------2---------------3-------|
E|---------------------------3-----------------------|



...when it gets too intimate, then i fall apart..
E|---------------------------------------------------|
B|-0----------------0-----------------------0--------|
G|-0----------------0---------0-------------0--------|
D|-5----------------2---------0-------------2--------|
A|-7----------------3---------2-------------3--------|
E|-0----------------0---------3-------------0--------|




CHORUS:

......and i carry on,   in these broken songs..
E|---------------------------------------------------|
B|--0--------------0---------------------0-----------|
G|--0--------------4--------------0------4-----------|
D|--2--------------5--------------2------5-----------|
A|--3--------------5---------------------5-----------|
E|--0--------------0------------3--------0-----------|


...like you said i  should, like you understood..
E|---------------------------------------------------|
B|-----------0---0--0--------------------------------|
G|-----------5---4--0----------------0--0--0---------|
D|-----------7---5--4----------------5--4--2---------|
A|-----------7---5--5----------------7--5--3---------|
E|------------------5----------------7--5--3---------|


BRIDGE:
E|-----------|
B|-0---------|
G|-0------0--|
D|-5------2--|
A|-7------3--|
E|--------3--|


CHORUS:

...but ill build a home,   in these broken songs..
E|---------------------------------------------------|
B|--0--------------0-----------------------0---------|
G|--0--------------4-----------------0-----4---------|
D|--2--------------5-----------------2-----5---------|
A|--3--------------5-----------------3-----5---------|
E|--0--------------0-----------------3-----0---------|


...like you said i  should, like you understood..
E|---------------------------------------------------|
B|-----------0---0--0--------------------------------|
G|-----------5---4--0----------------0--0--0---------|
D|-----------7---5--4----------------5--4--2---------|
A|-----------7---5--5----------------7--5--3---------|
E|------------------5----------------7--5--3---------|
Tap to rate this tab
 
# A B C D E F G H I J K L M N O P Q R S T U V W X Y Z