Song name
# A B C D E F G H I J K L M N O P Q R S T U V W X Y Z

Jim White - A Perfect Day To Chase Tornados tab

http://www.jimwhite.net/vocation.html

This tab should be accurate. Notes in brackets() should be played with less
emphasis than the others. Throughout the song let all notes ring out when possible.

Intro:

   Emin            Eb+5            D6              C#min7b5
e------7-----7---------7-----7---------7-----7---------5-----0------|
B--------0------(0)------0------(0)------0------(0)------0------(0)-|
G-------------------------------------------------------------------|
D------5-------5-------5-------5-------7-------7-------5-------5----|
A--7-------7-------6-------6-------5-------5-------4-------4--------|
E-------------------------------------------------------------------|

   Emin            Eb+5            D6              C#min7b5
e------7-----7---------7-----7---------7-----7---------5-----0------|
B--------0------(0)------0------(0)------0------(0)------0------(0)-|
G-------------------------------------------------------------------|
D------5-------5-------5-------5-------7-------7-------5-------5----|
A--7-------7-------6-------6-------5-------5-------4-------4--------|
E-------------------------------------------------------------------|

e------5-----0---------5-----0------------------|
B--------0------(0)------0------(0)-------------|
G-----------------------------------------------|
D------5-------5-------5-------5----------------|
A--4-------4-------4-------4-------4------------|
E-----------------------------------------------|

Verse 1:

   Emin            Eb+5            D6              C#min7b5
e------7-----7---------7-----7---------7-----7---------5-----0-------||
B--------0------(0)------0------(0)------0------(0)------0------(0)--||
G-------------------------------------------------------------------.||Repeat
D------5-------5-------5-------5-------7-------7-------5-------5----.||x4
A--7-------7-------6-------6-------5-------5-------4-------4---------||
E--------------------------------------------------------------------||

Pre-Chorus 1:

   Amin     Amin7  Amin6    Amin,add9  Emin            D6
e-------------------------------0----------7-----7---------7-----7-----------|
B------10-----8----6--------0----------------0------(0)------0------(0)------|
G----------------------9-----------------------------------------------------|
D------10-------10-------10-------10-------5-------5-------7-------7---------|
A--0--------0--------0--------0--------7-------7-------5-------5-------------|
E----------------------------------------------------------------------------|

   Amin     Amin7  Amin6    Amin,add9  Emin            Eb+5
e-------------------------------0----------7-----7---------7-----7-----------|
B------10-----8----6--------0----------------0------(0)------0------(0)------|
G----------------------9-----------------------------------------------------|
D------10-------10-------10-------10-------5-------5-------5-------5---------|
A--0--------0--------0--------0--------7-------7-------6-------6-------------|
E----------------------------------------------------------------------------|

   CMaj7            Bmin
e------7-----7------------------|
B--------0------(0)-------------|
G-------------------------------|
D------5-------5----------------|
A--3-------3--------------------|
E------------------7------------|

Chorus 1:

   E5              Gadd9             Dadd4             C     Cadd9 C
e------12----12---------10----10------------------------------10---0-||
B---------0-----(0)-------10------(10)----10----10------------8------||
G-------------------------------------------0--------0-----0--------.||Repeat
D------9-------9--------9--------9----------------------------------.||x3
A--7-------7-------10-------10------------9--------9-----7-----------||
E------------------------------------10-------10-------8-------------||

   E5              Gadd9             Dadd4             C
e------12----12---------10----10------------------------------------|
B---------0-----(0)-------10------(10)----10----10------------------|
G-------------------------------------------0--------0--------------|
D------9-------9--------9--------9----------------------------------|
A--7-------7-------10-------10------------9--------9----------------|
E------------------------------------10-------10-------8------------|

Post Chorus 1:

   Emin            Eb+5            D6              C#min7b5
e------7-----7---------7-----7---------7-----7---------5-----0------|
B--------0------(0)------0------(0)------0------(0)------0------(0)-|
G-------------------------------------------------------------------|
D------5-------5-------5-------5-------7-------7-------5-------5----|
A--7-------7-------6-------6-------5-------5-------4-------4--------|
E-------------------------------------------------------------------|

   Emin            Eb+5            D6              C#min7b5
e------7-----7---------7-----7---------7-----7---------5-----0------|
B--------0------(0)------0------(0)------0------(0)------0------(0)-|
G-------------------------------------------------------------------|
D------5-------5-------5-------5-------7-------7-------5-------5----|
A--7-------7-------6-------6-------5-------5-------4-------4--------|
E-------------------------------------------------------------------|

e------5-----0------------------|
B--------0------(0)-------------|
G-------------------------------|
D------5-------5----------------|
A--4-------4-------4------------|
E-------------------------------|

Verse 2:
-(Same as Verse 1)

Pre-Chorus 2:
-(Same as Pre-Chorus 1)

Post Chorus 2:
-(Same as Intro)

Verse 3:
-(Same as Verses 1&2)

Pre-Chorus 3:
-(Same as Pre-Chorus' 1&2)

Chorus 3:
-(Same as Chorus 3)

Post Chorus 3 (Slowing down towards end):

   Emin            Eb+5            D6              C#min7b5
e------7-----7---------7-----7---------7-----7---------5-----0------|
B--------0------(0)------0------(0)------0------(0)------0------(0)-|
G-------------------------------------------------------------------|
D------5-------5-------5-------5-------7-------7-------5-------5----|
A--7-------7-------6-------6-------5-------5-------4-------4--------|
E-------------------------------------------------------------------|

   Emin            Eb+5            D6              C#min7b5
e------7-----7---------7-----7---------7-----7---------------------|
B--------0------(0)------0------(0)------0------(0)----------------|
G------------------------------------------------------------------|
D------5-------5-------5-------5-------7-------7-------------------|
A--7-------7-------6-------6-------5-------5-------4---------------|
E------------------------------------------------------------------|
Tap to rate this tab
 
# A B C D E F G H I J K L M N O P Q R S T U V W X Y Z