Song name
# A B C D E F G H I J K L M N O P Q R S T U V W X Y Z

Jimi Hendrix - Hound Dog Acoustic tab

Heres my version of Jimi Hendrix's Hound Dog Acoustic version
(http://www.youtube.com/watch?v=MfyBkv7-rFQ)

Not 100%, but includes the main riff, which experienced players can add their own little bits
to...
Main theme is hammers on and pull offs on E chord, whilst palm muting it after every few 
strums...

Intro Bit
|------------------------------------------------------------|
|------------------------------------------------------------|
|------------------------------------------------------------|
|--/2-/2-/2-/2-/2-x-/2-/2-/2-/2-/2-/2-2p0--------------------|
|-----------------------------------------2p0----------------|
|---------------------------------------------3--0-----------|

Funky Riff Bit
|--x-----0-x------0-x---------0-x-------------------------------|
|--x-----0-x------0-x---------0-x-------------------------------|
|--x-----1-x------1-x--0h1----1-x-------------------------------|
|--x-----2-x--0h2-2-x---------2-x---0h2p0-----------------------|
|--x--------------2-x---------------------2p0-------------------|
|--x--0-----------0-x------0------------------3p0---------------| Repeat, sort of.

  Fill, randomly in there somewhere.
|----0-x-----------------|
|----0-x--------0-0-0-0--|
|----1-x-------/4-4-4-4--|
|----2-x--0h2--/5-5-5-5--|
|--------------/5-5-5-5--|
|-0-------------0-0-0-0--|

'You aint nothin but a hound dog'.....
  1              2		   3
|---------------|----------------|------------------------|
|---------------|----------------|------------------------|   Played 1x2 | 2x2 | 1x2 | 3x2
|---------------|----2-------0h2-|----4-------2h4---------|
|----2------0h2-|----2---0h2-----|----4---2h4-------------|
|----2---0h2----|--0---0---------|--2---2-----------------|
|--0---0--------|----------------|------------------------|

Main thing is to mess around with the chords, adding little riffs after chords.
Tap to rate this tab
# A B C D E F G H I J K L M N O P Q R S T U V W X Y Z