Song name
# A B C D E F G H I J K L M N O P Q R S T U V W X Y Z

Jimi Hendrix - Hush Now tab

The tuning for this song is 1 and 1/2 step down so from high to lo its-
C#, G#, E, B, F#,C#.
This is my first tab so go easy.

Main Riff

With wah wah and reverb

C#|---7-------10-10-10----/5-5-5------------------|
G#|---9-------10-10-10----/5-5-5------------------|
E |---9-------11-11-11----/6-6-6------------------|
B |---9-------10-10-10----/5-5-5------------------|
F#|---7-10h12-12-12-12----/7-7-7-------10-12-10---|
C#|0----------10-10-10----/5-5-5-10h12---------12-|

Repeat then add variations to the chord strumming

Solo

The Solo is in the C# pentatonic

             (On the chord change)
                  ^
C#|-------------------------------------------------------------------------|
G#|-------------------------------------------------------------------------|
E |-------------------------------------------------------------------------|
B |12h14-12-----------------------------------------------------------------|
F#|---------------0-12h14-14-12-14-12----------12h14------------------------|
C#|-----------------------------------15------------12----------------------|

C#|-------------------------------------------------------------------------|
G#|-------------------------------------------------------------------------|
E |-----------------------------14b-----14b-14p12-14-14-12-------------12b--|
B |------------------------------------------------------------14-----------|
F#|------12----12-12-14-----------------------------------------------------|
C#|12-15----15----------12--------------------------------------------------|

C#|--------------------------------------------------------------------------|
G#|--------------------------------------------------------------------------|
E |12-14-14-14b----12-14-14-14b-12b------------------------------------------|
B |---------------------------------14-12h14p12---------------------12h14p12-|
F#|---------------------------------------------12h14p12----12h14p12---------|
C#|------------------------------------------------------13------------------|

Thats as far as i have got, the solo is in c# pentatonic like i said so improvise
for the rest of it
Tap to rate this tab
# A B C D E F G H I J K L M N O P Q R S T U V W X Y Z