Song name
# A B C D E F G H I J K L M N O P Q R S T U V W X Y Z

Jimi Hendrix - Freedom And You tab

Jimi Hendrix - Freedom and You

Jimi Hendrix and Lonny Youngblood!
tuning: standard

intro
|-----------------------------------------------------------------------|
|-----------------------------------------------------------------------|
|--------------------12-------12-------------------------12-------12----| 2x
|--12-------12-------12-------12-------12-------12-------12-------12----|
|--12-------12-------10-------10-------12-------12-------10-------10----|
|--10-------10-------------------------10-------10----------------------|

|-----------------------------------------------------------------------|
|-----------------------------------------------------------------------|
|-------------------/11---14--------------------------------------------|
|--12----------------------------------------------------14p--12--14----|
|--------------------------------------------------------------------14-|
|-----------------------------------------------------------------------|
|
|-----------------------------------------------------------------------|
|-----------------------------------------------------------------------|
|--------------------12-------12-------------------------12-------12----|
|--12-------12-------12-------12-------12-------12-------12-------12----|
|--12-------12-------10-------10-------12-------12-------10-------10----|
|--10-------10-------------------------10-------10----------------------|

|-----------------------------------------------------------------------|
|--------------------------------------------------------------15-17-17b|
|--------------------------------------------------------14-16----------|
|--12------------------------------------------------/16----------------|
|-----------------------------------------------------------------------|
|-----------------------------------------------------------------------|
|
|-----------------------------------------------------------------------|
|-----------------------------------------------------------------------|
|--------------------12-------12-------------------------12-------12----|
|--12-------12-------12-------12-------12-------12-------12-------12----|
|--12-------12-------10-------10-------12-------12-------10-------10----|
|--10-------10-------------------------10-------10----------------------|

|-----------------------------------------------------------------------|
|----------------17--17-15----------------------------------------------|
|-------------------------16h19p16\14/16--------------------------------|
|--------------------------------------12-16p14p12-14-12-------------12h|
|-------------------------------------------------------------------14--|
|-----------------------------------------------------------------------|
|
|-----------------------------------------------------------------------|
|-----------------------------------------------------------------------|
|--12-------12-------12-------12-12----12-------12-------12-------12----|
|--12-------12-------12-------12-12----12-------12-------12-------12----|
|--10-------10-------10-------10-10----10-------10-------10-------10----|
|-----------------------------------------------------------------------|

|-----------------------------------------------------------------------|
|-----------------------------------------------------------------------|
|-------------------------14----------------------------------14--14--16|
|14-12h14-12--------/16-------16141214-12---------------/16-------------|
|-------------------------------\-p-h-----------------------------------|
|-----------------------------------------------------------------------|
|
|-----------------------------------------------------------------------|
|-----------------------------------------------------------------------|
|--------------------12-------12-------------------------12-------12----|
|--12-------12-------12-------12-------12-------12-------12-------12----|
|--12-------12-------10-------10-------12-------12-------10-------10----|
|--10-------10-------------------------10-------10----------------------|

|------------------------------------------------10h12p10---------------|
|--17b----------------------------17b--17p15-15\----------12------------|
|------------------------------------------------------------11\9p7-9-7-|
|-----------------------------------------------------------------------|
|-----------------------------------------------------------------------|
|-----------------------------------------------------------------------|
|
|-----------------------------------------------------------------------|
|-----------------------------------------------------------------------|
|--------------------12-------12-------------------------12-------12----|
|--12-------12-------12-------12-------12-------12-------12-------12----|
|--12-------12-------10-------10-------12-------12-------10-------10----|
|--10-------10-------------------------10-------10----------------------|

|-----------------------------------------------------------------------|
|-----------------------------------------------------------------------|
|9-/11--14--------------------------------------------------------------|
|-----------------------------------------------------------------------|
|--------------------------------------------x\----------------12-14-12-|
|-----------------------------------------------------10-12-------------|
|
|-----------------------------------------------------------------------|
|-----------------------------------------------------------------------|
|--------------------12-------12-------------------------12-------12----|
|--12-------12-------12-------12-------12-------12-------12-------12----|
|--12-------12-------10-------10-------12-------12-------10-------10----|
|--10-------10-------------------------10-------10----------------------|

|-----------------------------------------------------------------------|
|-----------------------------------------------------------------------|
|-----------------------------------------------------------------------|
|--14b---------------------------12----------------------14161412-14----|
|----------------------------------------------------------h-p----------|
|-----------------------------------------------------------------------|
|
|-----------------------------------------------------------------------|
|-----------------------------------------------------------------------|
|--12-------12-------12-------12-12----12-------12-------12-------12----|
|--12-------12-------12-------12-12----12-------12-------12-------12----|
|--10-------10-------10-------10-10----10-------10-------10-------10----|
|-----------------------------------------------------------------------|

|-----------------------------------------------------------------------|
|-----------------------------------------------------------------------|
|-----------------------------------16-16-------16----16----------------|
|--12----------------------------------------16----------14h16p14-12----|
|-----------------------------------------------------------------------|
|-----------------------------------------------------------------------|
|
|-----------------------------------------------------------------------|
|-----------------------------------------------------------------------|
|--------------------12-------12-------16----16-16----16-16----16-16----|
|--12-------12-------12-------12-------16----16-16----16-16----16-16----|
|--12-------12-------10-------10-------14----14-14----14-14----14-14----|
|--10-------10----------------------------------------------------------|

|------------------------------------------------------------------------|
|------------------------------------------------------------------------|
|--------------------------------------14--------------------------------|
|--14b-------------------------------------------------------------------|
|------------------------------------------------------------------------|
|------------------------------------------------------------------------|
|
|------------------------------------------------------------------------|
|------------------------------------------------------------------------|
|--14-14-14-14-14-14-14-14-14-14-14-14-12-12-12-12-12-12-12-12-12-12-12-12
|--14-14-14-14-14-14-14-14-14-14-14-14-12-12-12-12-12-12-12-12-12-12-12-12
|--12-12-12-12-12-12-12-12-12-12-12-12-10-10-10-10-10-10-10-10-10-10-10-10
|------------------------------------------------------------------------|

|------------------------------------------------------------------------|
|------------------------------------------------------------------------|
|------------------------------------------------------------------------|
|--14\12-----------------------------------------------------------------|
|------------------------------------------------------------------------|
|------------------------------------------------------------------------|
|
|------------------------------------------------------------------------|
|------------------------------------------------------------------------|
|--14-14-14-14-14-14-14-14-14-14-14-14-12-12-12-12-12-12-12-12-12-12-12-12
|--14-14-14-14-14-14-14-14-14-14-14-14-12-12-12-12-12-12-12-12-12-12-12-12
|--12-12-12-12-12-12-12-12-12-12-12-12-10-10-10-10-10-10-10-10-10-10-10-10
|------------------------------------------------------------------------|

|------------------------------------------------------------------------|
|------------------------------------------------------------------------|
|------------------------------------------------------------------------|
|------------------------------------------------------------------------|
|------------------------------------------------------------------------|
|8/10----------------------------------------------------12/-14/-16-/19--|
|
|------------------------------------------------------------------------|
|------------------------------------------------------------------------|
|--14-14-14-14-14-14-14-14-14-14-14-14-12-12-12-12-12-12-12-12-12-12-12-12
|--14-14-14-14-14-14-14-14-14-14-14-14-12-12-12-12-12-12-12-12-12-12-12-12
|--12-12-12-12-12-12-12-12-12-12-12-12-10-10-10-10-10-10-10-10-10-10-10-10
|------------------------------------------------------------------------|

|------------------------------------------------------------------------|
|-------------------------15--17b---------------17b------17b---17b---17b-|
|---------------------16-------------------------------------------------|
|-----19-----------------------------------------------------------------|
|-/17--------------------------------------------------------------------|
|------------------------------------------------------------------------|
|
|------------------------------------------------------------------------|
|------------------------------------------------------------------------|
|--14-14-14-14-14-14-14-14-14-14-14-14-14-14-14-14-14-14-14-14-14-14-14-14
|--14-14-14-14-14-14-14-14-14-14-14-14-14-14-14-14-14-14-14-14-14-14-14-14
|--12-12-12-12-12-12-12-12-12-12-12-12-12-12-12-12-12-12-12-12-12-12-12-12
|------------------------------------------------------------------------|

|-----------------------------------------------------------------------|
|--17b------17-------15-------------------------------------------------|
|-----------------------------16p-14------------------------------------|
|-------------------------------------16\14p12--14-------12------------12
|--------------------------------------------------------------------14-|
|-----------------------------------------------------------------------|
|
|-----------------------------------------------------------------------|
|-----------------------------------------------------------------------|
|--------------------12-------12-------------------------12-------12----|
|--12-------12-------12-------12-------12-------12-------12-------12----|
|--12-------12-------10-------10-------12-------12-------10-------10----|
|--10-------10-------------------------10-------10----------------------|

|-----------------------------------------------------------------------|
|-----------------------------------------------------------------15----|
|----------------14-----------------------------------------14-16-------|
|-/16----------------------------------------------------16-------------|
|----------------------------------------------------/17----------------|
|-----------------------------------------------------------------------|
|
|-----------------------------------------------------------------------|
|-----------------------------------------------------------------------|
|--------------------12-------12-------------------------12-------12----|
|--12-------12-------12-------12-------12-------12-------12-------12----|
|--12-------12-------10-------10-------12-------12-------10-------10----|
|--10-------10-------------------------10-------10----------------------|

|16b--------------------------------------------------------------------|
|-----17b---17-15171515\------15-\--------------------------------------|
|----------------h-p-----------1614-------------------------------------|
|--------------------------------16141214-------12-------14brp121412--14|
|----------------------------------\-p-h--------------------------------|
|-----------------------------------------------------------------------|
|
|-----------------------------------------------------------------------|
|-----------------------------------------------------------------------|
|--12-------12-------12-------12-12----12-------12-------12-------12----|
|--12-------12-------12-------12-12----12-------12-------12-------12----|
|--10-------10-------10-------10-10----10-------10-------10-------10----|
|-----------------------------------------------------------------------|

|-----------------------------------------------------------------------|
|--------------------------------------------------------15-------------|
|--------------------------------------------------14-16----16-14-------|
|--12----------------------------------12-14-12-16---------------16\1412|
|-----------------------------------------------------------------------|
|--------------------3-/5-/7--10/12/14----------------------------------|
|
|-----------------------------------------------------------------------|
|-----------------------------------------------------------------------|
|--------------------12-------12-------------------------12-------12----|
|--12-------12-------12-------12-------12-------12-------12-------12----|
|--12-------12-------10-------10-------12-------12-------10-------10----|
|--10-------10-------------------------10-------10----------------------|

|-----------------------------------------------------------------------|
|--------------------------15-15-------17b---------------17---15--------|
|-----14-------------16------------16-----------------------------16--14|
|1416-------------------------------------------------------------------|
|-----------------------------------------------------------------------|
|-----------------------------------------------------------------------|
|
|-----------------------------------------------------------------------|
|-----------------------------------------------------------------------|
|--------------------12-------12-------------------------12-------12----|
|--12-------12-------12-------12-------12-------12-------12-------12----|
|--12-------12-------10-------10-------12-------12-------10-------10----|
|--10-------10-------------------------10-------10----------------------|

|-----------------------------------------------------------------------|
|-----------------------------------------------------------------------|
|-----------------------------------------------------------------------|
|-16141214--12-------14161412h14----12-12---------141614-14161412-141614|
|--\-p-h---------------/-\-p------------------------h-p----h-p-p----h-p-|
|-----------------------------------------------------------------------|
|
|-----------------------------------------------------------------------|
|-----------------------------------------------------------------------|
|--------------------12-------12-------------------------12-------12----|
|--12-------12-------12-------12-------12-------12-------12-------12----|
|--12-------12-------10-------10-------12-------12-------10-------10----|
|--10-------10-------------------------10-------10----------------------|

|-----------------------------------------------------------------------|
|--------------------------15-15\---------------------------------------|
|-----------14-------16----------------16b\-----------------------------|
|1214b------------------------------------------------------------------|
|p-------------------------------------------------------12-------12----|
|----------------------------------------------/10--12-14------14-------|
|
|-----------------------------------------------------------------------|
|-----------------------------------------------------------------------|
|--12-------12-------12-------12-12----12-------12-------12-------12----|
|--12-------12-------12-------12-12----12-------12-------12-------12----|
|--10-------10-------10-------10-10----10-------10-------10-------10----|
|-----------------------------------------------------------------------|

|-----------------------------------------------------------------------|
|-----------------------------------------------------------------------|
|-----14----------------------------------------------------------------|
|-/16----------------161412---14--12---------------------16\14p12-14-12-|
|---------------------\-p-----------------------------------------------|
|-----------------------------------------------------------------------|
|
|-----------------------------------------------------------------------|
|-----------------------------------------------------------------------|
|--------------------12-------12-------16----16-16----16-16----16-16----|
|--12-------12-------12-------12-------16----16-16----16-16----16-16----|
|--12-------12-------10-------10-------14----14-14----14-14----14-14----|
|--10-------10----------------------------------------------------------|

|------------------------------------------------------------------------|
|------------------------------------------------------------------------|
|------------------------------------------------------------------------|
|--14b-----------------------/14-------12--------------------------------|
|------------------------------------------------------------------------|
|------------------------------------------------------------------------|
|
|------------------------------------------------------------------------|
|------------------------------------------------------------------------|
|--14-14-14-14-14-14-14-14-14-14-14-14-12-12-12-12-12-12-12-12-12-12-12-12
|--14-14-14-14-14-14-14-14-14-14-14-14-12-12-12-12-12-12-12-12-12-12-12-12
|--12-12-12-12-12-12-12-12-12-12-12-12-10-10-10-10-10-10-10-10-10-10-10-10
|------------------------------------------------------------------------|

|------------------------------------------------------------------------|
|------------------------------------------------------------------15----|
|-----------------------------14------/16--------------------------------|
|-/16--------------------------------------------------------------------|
|------------------------------------------------------------------------|
|------------------------------------------------------------------------|
|
|------------------------------------------------------------------------|
|------------------------------------------------------------------------|
|--14-14-14-14-14-14-14-14-14-14-14-14-12-12-12-12-12-12-12-12-12-12-12-12
|--14-14-14-14-14-14-14-14-14-14-14-14-12-12-12-12-12-12-12-12-12-12-12-12
|--12-12-12-12-12-12-12-12-12-12-12-12-10-10-10-10-10-10-10-10-10-10-10-10
|------------------------------------------------------------------------|

|-----------------------------14-------/17---------------17-------17-----|
|-/19--------------------------------------------------------------------|
|------------------------------------------------------------------------|
|------------------------------------------------------------------------|
|------------------------------------------------------------------------|
|------------------------------------------------------------------------|
|
|------------------------------------------------------------------------|
|------------------------------------------------------------------------|
|--14-14-14-14-14-14-14-14-14-14-14-14-12-12-12-12-12-12-12-12-12-12-12-12
|--14-14-14-14-14-14-14-14-14-14-14-14-12-12-12-12-12-12-12-12-12-12-12-12
|--12-12-12-12-12-12-12-12-12-12-12-12-10-10-10-10-10-10-10-10-10-10-10-10
|------------------------------------------------------------------------|

|--17\-------------------------------------------------------------------|
|------------------------------------------------------------------------|
|------------------------------------------------------------------------|
|---------------------------------12-------------------------------------|
|------------------------12---14-----------------------------------------|
|-----/10------------14--------------------------------------------------|
|
|------------------------------------------------------------------------|
|------------------------------------------------------------------------|
|--14-14-14-14-14-14-14-14-14-14-14-14-14-14-14-14-------12-------10-----|
|--14-14-14-14-14-14-14-14-14-14-14-14-14-14-14-14-------12-------10-----|
|--12-12-12-12-12-12-12-12-12-12-12-12-12-12-12-12-------10-------8------|
|------------------------------------------------------------------------|

|-----------------------------------------------------------------------|
|-----------------------------------------------------------------------|
|--11b------------------------------------------------------------------|
|--13b------------------------------------------161412---14-------12----|
|-------------------------------------------------\-p-h---------------14|
|-----------------------------------------------------------------------|
|
|-----------------------------------------------------------------------|
|-----------------------------------------------------------------------|
|--------------------12-------12-------------------------12-------12----|
|--12-------12-------12-------12-------12-------12-------12-------12----|
|--12-------12-------10-------10-------12-------12-------10-------10----|
|--10-------10-------------------------10-------10----------------------|

|-----------------------------------------------------------------------|
|--------------------------------------------------------------------15-|
|------------------------------------------------------------14--16-----|
|--12------------------------------------------------/16----------------|
|-----------------------------------------------------------------------|
|-----------------------------------------------------------------------|
|
|-----------------------------------------------------------------------|
|-----------------------------------------------------------------------|
|--------------------12-------12-------------------------12-------12----|
|--12-------12-------12-------12-------12-------12-------12-------12----|
|--12-------12-------10-------10-------12-------12-------10-------10----|
|--10-------10-------------------------10-------10----------------------|

|-----------------------------------------------------------------------|
|--15b-----------15-----------------------------------------------------|
|-------------------------------16\14p11--------------------------------|
|--------------------------------------16\14p12h14----12--------------12|
|-----------------------------------------------------------------------|
|-----------------------------------------------------------------------|
|
|-----------------------------------------------------------------------|
|-----------------------------------------------------------------------|
|--------------------12-------12-------------------------12-------12----|
|--12-------12-------12-------12-------12-------12-------12-------12----|
|--12-------12-------10-------10-------12-------12-------10-------10----|
|--10-------10-------------------------10-------10----------------------|

|-----------------------------------------------------------------------|
|-----------------------------------------------------------------------|
|-----------------------------------------------------------------------|
|--12------/16\14p12/16\14p12/16\14p12-*go.on.with.something.like.this!*|
|-----------------------------------------------------------------------|
|-----------------------------------------------------------------------|
|
|-----------------------------------------------------------------------|
|-----------------------------------------------------------------------|
|--------------------12-------12-------------------------12-------12----|
|--12-------12-------12-------12-------12-------12-------12-------12----|
|--12-------12-------10-------10-------12-------12-------10-------10----|
|--10-------10-------------------------10-------10----------------------|

|-------------------14-17--------|
|----------------15--------------|
|-----16-16----------------------|
|-/16----------------------------|
|--------------------------------|
|--------------------------------|
|
|--------------------------------|
|--------------------------------|
|--------------------12-------12-|
|--12-------12-------12-------12-|
|--12-------12-------10-------10-|
|--10-------10-------------------|
fade out. great song, isn't it?

p: pull off
h: hammer on
b: bend
/: slide up
\: slide down
x: mute note
Tap to rate this tab
 
# A B C D E F G H I J K L M N O P Q R S T U V W X Y Z