Song name
# A B C D E F G H I J K L M N O P Q R S T U V W X Y Z

Jimi Hendrix - Little Miss Lover tab

Chords:
F#7#9  A7#9  C#7#9 E9   F9
-5------8-----0-----7---8---|
-5------8-----5-----7---8---|
-3------6-----4-----7---8---|
-4------7-----3-----7---8---|
-4------7-----4-----6---7---|
-2------5-----------7---8---|

verse:
----------------------5~---------------------------------8~--------------|
--------5-------------5~----5(7)~----------8-------------8~------8(10)~--|
--------4-------------4~-or----------------6-------------6~--or----------|
--------3-------------3~-------------------7-------------7~--------------|
-------------------------------------------------------------------------|
-2--2-2---2--0--2--2----------------5--5-5----5---5--5-5-----------------|

solo   2x
||----------------5-||----------5--------------------------------------------------|
||----------------5-||--------5---8-8(10)~--8(10)8p5---------------8---------------|
||----------------3-||--7(9)~------------------------7(9)7(9)~-7(9)--7-5-7-7-5(6)~-|
||-2--------------4-||---------------------------------------------------7---------|
||---4-3-2-0--------||-------------------------------------------------------------|
||-----------0-2----||-------------------------------------------------------------|
                                                                 3x
-----8----10(11)------------------17-----------------------17-||--------||------------|
-/10---10--------10~----------17----20(22)20----------17----||17h20p17||--20(22)~-----|
------------------------19(21)-------------------19(21)-------||--------||------------|
--------------------------------------------------------------||--------||------------|
--------------------------------------------------------------||--------||------------|
--------------------------------------------------------------||--------||------------|

----------------------------------------------------------------|
-20(21)-20-17h20p17-17h20p17------------------------------------|
-----------------------------19(21)~--19(21)-19-17----17-19(21)-|
---------------------------------------------------19-----------|
----------------------------------------------------------------|
----------------------------------------------------------------|

-----------------------------17---|
-----------------------------17---|
-19(21)-19-17-19-17~--19(21)------|
----------------------------------|
----------------------------------|
----------------------------------|

outro:
  12x      4x       12x                                       feedback
||||-6--||-7(9)--||----------||----------------------------5~~------|
||||-5--||-------||----------||----------------------------5~~------|
||||-6--||-------||----------||--4(6)~~-2------------------3~~------|
||||----||-------||--4p2-4p2-||-4----------4-2-------------4~~------|
||||----||-------||----------||----------------4-3-2-0-----4~~------|
||||----||-------||----------||-2--------------------------2~~------|
Tap to rate this tab
# A B C D E F G H I J K L M N O P Q R S T U V W X Y Z