Guitaretab - guitar tabs
Song name
# A B C D E F G H I J K L M N O P Q R S T U V W X Y Z

Jimi Hendrix - Freedom tab

                                                Freedom
                                             Jimi Hendrix



Tablature Legend:

/=  slide up
\=  slide down
b=  bend
r=  refrain bend
pb= prebend
p=  pulloff
h=  hammeron
()= optional note
X=  muted string
d=  downstroke
u=  upstroke
m=  palm mute
~=  shake frequently or use wammy bar


Intro:
|----------------------------------------------------------------------|
|----------------------------------------------------------------------|
|-6----------------6-6-4-6----------------6-6-4-6----------------5-6-4-|
|-6----------------6-6-4-6----------------6-6-4-6----------------6-6-4-|
|-4-----------2----4-4-2-4-----------2----4-4-2-4-----------2----4-4-2-|
|----0--2--4----------------0--2--4----------------0--2--4-------------|

Intro Solo:
|-pb16-b-14---12---------12b/-----14b15.5--12-----14b15.5--12---------------|
|-----------------14------------------------------------------14--14---12\--|
|---------------------------------------------------------------------------|
|---------------------------------------------------------------------------|
|---------------------------------------------------------------------------|
|---------------------------------------------------------------------------|

|-----------------------------------|
|-12b14-9---------------------------|
|---------11-9----------------------|
|--------------11-9-----------------|
|-------------------11-10-9-7---7\--|
|-----------------------------9-----|



(From "You got my pride, hangin' out of your bed")

 Guitar I
|-------------------------------------------------|
|-------------------------------------------------|
|-------------------------------------------------|
|-------------------------------------2~----------|
|-------------------------------------------------|
|-------------------------------------------------|
|Guitar II
|-------------------------------------------------|
|-5-5----5-5--x-x-x-x-x----5-5----5-5---9-9-9-9-9-|
|-6-6----6-6--x-x-x-x-x----6-6----6-6---9-9-9-9-9-|
|-6-6----6-6--x-x-x-x-x----6-6----6-6---9-9-9-9-9-|
|-4-4----4-4--x-x-x-x-x----4-4----4-4---7-7-7-7-7-|
|-------------------------------------------------|


(From "You been messin' with my life...")

 Guitar I
|-------------------------------------------------|
|-------------------------------------------------|
|-------------------------------------------------|
|---------/6-2------------------------2-----------|
|-------------------------------------------------|
|-----------------------------0-2--4--------------|
|Guitar II
|-------------------------------------------------|
|-5-5----5-5------9-9------5-5----5-5-------9-9---|
|-6-6----6-6------9-9------6-6----6-6-------9-9---|
|-6-6----6-6------9-9------6-6----6-6-------9-9---|
|-4-4----4-4---------------4-4----4-4-------7-7---|
|-------------------------------------------------|


(From "You been messin' with my children...")

 Guitar I
|-------------------------------------------------|
|--------7b9--5--------------7b9-5--b7------------|
|---------------6---------------------------------|
|-------------------------------------------------|
|-------------------------------------------------|
|-------------------------------------------------|
|Guitar II
|-------------------------------------------------|
|-5-5----5-5------9-9------5-5----5-5-------9-9---|
|-6-6----6-6------9-9------6-6----6-6-------9-9---|
|-6-6----6-6------9-9------6-6----6-6-------9-9---|
|-4-4----4-4---------------4-4----4-4-------7-7---|
|-------------------------------------------------|


(From "Get off of my back, If you want to get outta here alive")

 Guitar I
|------------9----------------------------------------------|
|-----12b14-------------------------------------------------|
|----------------11b13--------------------------------------|
|-----------------------------------------------------------|
|-----------------------------------------------------------|
|-----------------------------------------------------------|
|Guitar II
|-----------------------------------------------------------|
|-5-5----5-5------9-9------5-5----5-5-------9-9---9-9---9-9-|
|-6-6----6-6------9-9------6-6----6-6-------9-9---9-9---9-9-|
|-6-6----6-6------9-9------6-6----6-6-------9-9---9-9---9-9-|
|-4-4----4-4---------------4-4----4-4-------7-7---7-7---7-7-|
|-----------------------------------------------------------|



Chorus:


(From "Freedom!")

 Guitar I
|---7b9r7------------------------|
|--------------------------------|
|--------------------------------|
|--------------------------------|
|--------------------------------|
|--------------------------------|
|Guitar II
|--------------------------------|
|-----------------------------9--|
|---------6-------------------9--|
|-2-2-----6-----------2-2-----9--|
|-2-2-----4-----------2-2--------|
|-0-0-----------------0-0--------|


(From "Freedom!")

 Guitar I
|---7b9r7------------------------|
|--------------------------------|
|--------------------------------|
|--------------------------------|
|--------------------------------|
|--------------------------------|
|Guitar II
|--------------------------------|
|-----------------------------9--|
|---------6-------------------9--|
|-2-2-----6-----------2-2-----9--|
|-2-2-----4-----------2-2--------|
|-0-0-----------------0-0--------|


(From "Freedom!")

 Guitar I
|---7b9r7------------------------|
|--------------------------------|
|--------------------------------|
|--------------------------------|
|--------------------------------|
|--------------------------------|
|Guitar II
|--------------------------------|
|-----------------------------9--|
|---------6-------------------9--|
|-2-2-----6-----------2-2-----9--|
|-2-2-----4-----------2-2--------|
|-0-0-----------------0-0--------|



 Guitar I
|-----------------------------------------------9-9-------|
|---------------------------------------------------12b14-|
|---------------9-------------------9-11-11b13------------|
|----------9-11----------------9-11-----------------------|
|-----9-11----------------9-11----------------------------|
|---------------------------------------------------------|
|Guitar II
|-------------------------------------------------========|
|-5-5----5-5--x-x-x-x-x----5-5----5-5-------9-9---========|
|-6-6----6-6--x-x-x-x-x----6-6----6-6-------9-9---========|
|-6-6----6-6--x-x-x-x-x----6-6----6-6-------9-9---========|
|-4-4----4-4--x-x-x-x-x----4-4----4-4-------7-7---========|
|-------------------------------------------------========|


 Guitar I
|------------------------------9-12-14b16-14b16-14b16-14b16-14b16-14b16--17b19-|
|----------------------------9-------------------------------------------------|
|-------------------9--11b13---------------------------------------------------|
|--------------9-11------------------------------------------------------------|
|---------9-11-----------------------------------------------------------------|
|----9-12----------------------------------------------------------------------|
|Guitar II
|-------------------------------------------------|
|-5-5----5-5------9-9------5-5----5-5-------9-9---|
|-6-6----6-6------9-9------6-6----6-6-------9-9---|
|-6-6----6-6------9-9------6-6----6-6-------9-9---|
|-4-4----4-4---------------4-4----4-4-------7-7---|
|-------------------------------------------------|



(From "You got my heart... You got my soul, spirit and heart...")
|-------------------12-12\--|-----------------------------12-12\-|
|-------------------12-12\--|--14\--x-x---14-14\-----14---12-12\-|
|----9~\------9\----9--9-\--|--13\--x-x---13-13\-----13----------|
|---------------------------|-------x-x--------------------------|
|---------------------------|-------x-x--------------------------|
|---------------------------|------------------------------------|

|-------------------------12-12\--|-----------------------------------------|
|-14----14-14\-------14---12-12\--|-14----14-14\------------5---------------|
|-13----13-13\-------13-----------|-13----13-13\-----7b9------9-------------|
|---------------------------------|-----------------------------------------|
|---------------------------------|-----------------------------------------|
|---------------------------------|-----------------------------------------|




(From "Freedom!")

 Guitar I
|---7b9r7-------------------------|
|-------------7b9-r7p5------------|
|----------------------6----------|
|---------------------------------|
|---------------------------------|
|---------------------------------|
|Guitar II
|--------------------------------|
|-----------------------------9--|
|---------6-------------------9--|
|-2-2-----6-----------2-2-----9--|
|-2-2-----4-----------2-2--------|
|-0-0-----------------0-0--------|


(From "Freedom!")

 Guitar I
|---7b9-7b9~---------------------|
|--------------------------------|
|--------------------------------|
|--------------------------------|
|--------------------------------|
|--------------------------------|
|Guitar II
|--------------------------------|
|-----------------------------9--|
|---------6-------------------9--|
|-2-2-----6-----------2-2-----9--|
|-2-2-----4-----------2-2--------|
|-0-0-----------------0-0--------|


(From "Freedom!")

 Guitar I
|---7b9-7b9~---------------------|
|--------------------------------|
|--------------------------------|
|--------------------------------|
|--------------------------------|
|--------------------------------|
|Guitar II
|--------------------------------|
|-----------------------------9--|
|---------6-------------------9--|
|-2-2-----6-----------2-2-----9--|
|-2-2-----4-----------2-2--------|
|-0-0-----------------0-0--------|


 Guitar I
|---7b9-7b9~---------------------|
|--------------------------------|
|--------------------------------|
|--------------------------------|
|--------------------------------|
|--------------------------------|
|Guitar II
|--------------------------------|
|-----------------------------9--|
|---------6-------------------9--|
|-2-2-----6-----------2-2-----9--|
|-2-2-----4-----------2-2--------|
|-0-0-----------------0-0--------|




|----------------------------------------|
|----------------------------------------|
|-------------------------------2--------|
|-2-2-------------------2---4------------|
|-2-2-----------2---4--------------------|
|-0-0---2---4----------------------------|



(From "You don't have to say that you love me...")

|------------------------------------------------------------------------------------------------|
|----------4~--------------4~-------------4~-------------------------------4~--------------------|
|----------4~--------------4~p2-----------4~--------------6----------------4~--------------------|
|-4-4-------------2-4------------2-4-------------2-4------6b7-----2-4---------------2-4------6b7-|
|-4-4-------------2-4------------2-4-------------2-4--------------2-4---------------2-4----------|
|-2-2-------------0-2------------0-2-------------0-2--------------0-2---------------0-2----------|

|---------------------|
|----------4~---------|
|----------4~---------|
|-2-4-----------2-4---|
|-2-4-----------2-4---|
|-0-2-----------0-2---|



[ Tab from: http://www.guitaretab.com/j/jimi-hendrix/119338.html ]
Guitar Solo:
|----------------------------------------------------------------------------------------------------|
|-----------------------------------------------------------------------------------------10---------|
|---------------------------------------------------------------------------------------9-----11--11-|
|----------------------------------------------------------------------------------9-11--------------|
|-2b---2b----2b----2b----2b2.5r2p0-2--0--------------5-7---5-7---5-7---5-7---/9-12-------------------|
|----------------------------------------0--------0------0-----0-----0-----0-------------------------|

|----------------------------------------------------------12--------------------------------|
|-10---12-12b14-10------10--12--12b14--12--10------12b14-------12--pb14--14r12-10--12-----10-|
|------------------11--------------------------11-------------------------------------11-----|
|--------------------------------------------------------------------------------------------|
|--------------------------------------------------------------------------------------------|
|--------------------------------------------------------------------------------------------|

|-------14-17p14----------------------|
|-14-17----------17-------------------|
|-------------------16b18--14---------|
|--------------------------------16\--|
|-------------------------------------|
|-------------------------------------|




|--------------------------------------------|
|--------------------------------------------|
|--------------------------------------------|
|-4-4-4-4-4---2-1--------------------2-/6----|
|-----------------4--------1--2--3-4---------|
|--------------------2---------------------0-|


 Guitar I
|--------------------------------------------|
|--------------------------------------------|
|--------------------------------------------|
|-6b7----6--6b7r6p4--------------------------|
|--------------------4-----------------------|
|--------------------------------------------|
|Guitar II
|--------------------------------------------|
|--------------------------------------------|
|--------------------------------------------|
|-4-4-4-4-4---2-1--------------------2-/6----|
|-----------------4--------1--2--3-4---------|
|--------------------2---------------------0-|




2nd Guitar Solo:
|------------14-------------14-----------------------------------------------------|
|--------14------17b19----------14---17----14-17-14----14--------------------------|
|-16b18---------------------------------------------16----16-14-----14-------------|
|---------------------------------------------------------------16-----16-14----14-|
|----------------------------------------------------------------------------16----|
|----------------------------------------------------------------------------------|

|-------------------------------------------------------------------|
|-----------------17----14----14------------------------------------|
|-------------14-----------16----14-------14-16-16b18-16---14----14-|
|-------14h16-----------------------16------------------------16----|
|-14h16-------------------------------------------------------------|
|-------------------------------------------------------------------|


 Guitar I
|-------------------------------------------------------|
|-12--------12--------12-----12---------12--------------|
|-11b13-----11b13-----11b13--11b13r11p9-11--------------|
|------------------------------------------11-9h11p9----|
|----------------------------------------------------11-|
|-------------------------------------------------------|
|Guitar II
|-------------------------------------------------------|
|-------------------------------------------------------|
|-6-----------------------------------------------------|
|-6-----------------------------------------------------|
|-4-----------------------------------------------------|
|-------------------------------------------------------|
|Guitar III
|-------------------------------------------------------|
|-------------------------------------------------------|
|-------------------------------------------------------|
|-------------------------------------------------------|
|-2h4p2h4p2h4p2-------------------------2h4p2h4p2h4p2h4-|
|-------------------------------------------------------|




|-9----------9-9-------------------9----------9-9------------------|
|-9----------9-9-------------------9----------9-9------------------|
|-9----------9-9-------------------9----------9-9------------------|
|-11----9------------9----11-------11----9------------9----11------|
|-------9-11---------9h11----------------9-11---------9h11---------|
|----12----------12-------------------12----------12---------------|




 Guitar I
|-9----------9-9-------------------9----------9-9------------------|
|-9----------9-9-------------------9----------9-9------------------|
|-9----------9-9-------------------9----------9-9------------------|
|-11----9------------9----11-------11----9------------9----11------|
|-------9-11---------9h11----------------9-11---------9h11---------|
|----12----------12-------------------12----------12---------------|
|Guitar II
|------------------------------------------------------------------|
|------------------------------------------------------------------|
|------------------------------------------------------------------|
|------------9-9\------------------9----------9-11\----------------|
|------------------------------------------------------------------|
|------------------------------------------------------------------|


 Guitar I
|-9----------9-9-------------------9----------9-9------------------|
|-9----------9-9-------------------9----------9-9------------------|
|-9----------9-9-------------------9----------9-9------------------|
|-11----9------------9----11-------11----9------------9----11------|
|-------9-11---------9h11----------------9-11---------9h11---------|
|----12----------12-------------------12----------12---------------|
|Guitar II
|------------------------------------------------------------------|
|------------------------------------------------------------------|
|------------------------------------------------------------------|
|-x----------11-11\----------------11---------11-11p9\-------------|
|------------------------------------------------------------------|
|------------------------------------------------------------------|


 Guitar I
|-9----------9-9-------------------9----------9-9------------------|
|-9----------9-9-------------------9----------9-9------------------|
|-9----------9-9-------------------9----------9-9------------------|
|-11----9------------9----11-------11----9------------9----11------|
|-------9-11---------9h11----------------9-11---------9h11---------|
|----12----------12-------------------12----------12---------------|
|Guitar II
|------------9-9\--------------------------------------------------|
|------------9-9\--------------------------------------------------|
|------------9-9\-------------------------------9\-----------------|
|-11-------------------------------9----------9-9\-----------------|
|------------------------------------------------------------------|
|------------------------------------------------------------------|


 Guitar I
|-9----------9-9-------------------9----------9-9------------------|
|-9----------9-9-------------------9----------9-9------------------|
|-9----------9-9-------------------9----------9-9------------------|
|-11----9------------9----11-------11----9------------9----11------|
|-------9-11---------9h11----------------9-11---------9h11---------|
|----12----------12-------------------12----------12---------------|
|Guitar II
|------------------------------------------------------------------|
|------------9-9\--------------------------------------------------|
|------------9-9\--------------------------------------------------|
|-11---------9-9\------------------x----------11-11\---------------|
|------------------------------------------------11\---------------|
|------------------------------------------------------------------|


 Guitar I
|-9----------9-9-------------------9----------9-9------------------|
|-9----------9-9-------------------9----------9-9------------------|
|-9----------9-9-------------------9----------9-9------------------|
|-11----9------------9----11-------11----9------------9----11------|
|-------9-11---------9h11----------------9-11---------9h11---------|
|----12----------12-------------------12----------12---------------|
|Guitar II
|------------------------------------------------------------------|
|------------------------------------------------------------------|
|------------------------------------------------------------------|
|-9----------9---9\----------------11---------11-11\---------------|
|------------11-11\------------------------------------------------|
|------------------------------------------------------------------|


 Guitar I
|-9----------9-9-------------------9----------9-9------------------|
|-9----------9-9-------------------9----------9-9------------------|
|-9----------9-9-------------------9----------9-9------------------|
|-11----9------------9----11-------11----9------------9----11------|
|-------9-11---------9h11----------------9-11---------9h11---------|
|----12----------12-------------------12----------12---------------|
|Guitar II
|-7----------7-7\------------------12---------9-9\-----------------|
|-9----------9-9\------------------12---------9-9\-----------------|
|------------------------------------------------------------------|
|------------------------------------------------------------------|
|------------------------------------------------------------------|
|------------------------------------------------------------------|




|------------------------------------------------------------|
|------------------------------------------------------------|
|-6-6---4-4--------------------------------------------------|
|-------------6-6---4-4---2-2--------------------------------|
|-------------------------------4-4---2-2--------------------|
|-------------------------------------------4-4---2-2---0-0--|


Outro:
|----------------------------------------------------------------------------------------------|
|-----5--------------------7\----------3--------------------5\----------1--------------------3-|
|-4h6-----6-4----------4---7\------2h4-----4-2----------4---4\------0h2-----2-0----------2---2-|
|-------------5--4-----4-----------------------3--2-----------------------------1--0-----2-----|
|----------------------------------------------------------------------------------------------|
|----------------------------------------------------------------------------------------------|

 Guitar I
|----------------4-4---7-7---10-10--13--13------16-------16-------------------------------------------|
|----------------4-4---7-7---10-10--13--13-----16--------16-------------------------------------------|
|-----4----------4-4---7-7---10-10--13--13----16---------16-------------------------------------------|
|-4h6---6-4------3-3---6-6---9--9---12--12---15----------15-------------------------------------------|
|-----------5-----------------------------------------------------------------------------------------|
|-----------------------------------------------------------------------------------------------------|
|Guitar II
|-----------------------------------------------------16------------16\-------------------------------|
|------------------------------------------------------16-----------16\-------------------------------|
|-------------------------------------------------------16----------16\-------------------------------|
|-------------------------------------------------------------------15\-------------------------------|
|-----------------------------------------------------------------------------------------------------|
|-----------------------------------------------------------------------------------------------------|
Related for Freedom tab
Advertisement will be closed in 10 seconds