Song name
# A B C D E F G H I J K L M N O P Q R S T U V W X Y Z

Jimi Hendrix - Hey Baby tab

Transcribed by Kelsey Terhorst

Sometimes when chords are needed I wrote the chord being played above the note. The 
of this song is all the strings are a half step flat (Eb Bb Gb Db Ab Eb).

    Eb                 Cb                   Gb
Eb|--------------------------------------------|
Bb|--------------------------------------------|
Gb|--------------------------------------------|
Db|-----------------------------------2-3-4----|
Ab|-------------0-1-2--3---0-1-2-3-/5----------|
Eb|-0---0-1-2-3-----------------------------3--|

                      Db                Eb
Eb|-------------------------------5-------|
Bb|-8/10\7-----8/10\8----7--------5-------|
Gb|-7/9 \7-----7/9 \7----7--7--------6----|
Db|-------------------------7--------7----|
Ab|-------------------5-------------------|
Eb|---------x3-----------------5--------0-|

    Gb                Cb
Eb|---------------------------------------------|
Bb|---------------------------------------------|
Gb|---------------------------------------------|
Db|-3-2-1-0-----------5---------0---------------|
Ab|---------3-2-1-0-5-3-------2---2-0---1-0-----|
Eb|-----------------3-----1-3---------1-----3-1-|

                                   D       A
Eb|--------------------------------------------|
Bb|--------------------------------8-8-888-----|
Gb|--------------------------------8-8-888-7---|
Db|---------1-0---3-1-0------------8-8-888-8---|
Ab|-1-0---------3-------3-1-0------6-6-666-8---|
Eb|-----3-1-------------------3-1----------6---|

    C       G           G#      A       A#    B
Eb|--------------------------------------------------|
Bb|-6-6-666------------------------------------------|
Gb|-6-6-666-5-------5-------6-------7----------------|
Db|-6-6-666-6---------6-------7-------8-----8-10p8---|
Ab|-4-4-444-6-----4-------5-------6-----/10-------10-|
Eb|---------4---4-------5-------6--------------------|

    D       A   C       G           G#      A
Eb|-------------------------------------------------|
Bb|-8-8-888-----6-6-666-----------------------------|
Gb|-8-8-888-7---6-6-666-5-------5-------6-------7---|
Db|-8-8-888-8---6-6-666-6---------6-------7-------8-|
Ab|-6-6-666-6---4-4-444-6-----4-------5-------6-----|
Eb|---------6-----------4---4-------5-------6-------|
    A#  B   E                    A
Eb|---------------------------------------------|
Bb|---------------------------------------------|
Gb|---------------------------------------------|
Db|---------------------------------------------|
Ab|---------8---8-10-8-7-8-7-5------------------|
Eb|-7-7-8----------------------8-6----6-6-6-6-5-|

    Db                  Gb           Bb
Eb|--------------------------------------------|
Bb|--------------------------------------------|
Gb|--------------------------------------------|
Db|--------------------------------------------|
Ab|-5---5-7-5-4-5-4-2----------------2---2-4-2-|
Eb|-------------------5-3----3-3---3-----------|

              Eb
Eb|-----------------------------------------|
Bb|-----------------------------------------|
Gb|-----------------------------------------|
Db|-----------------------------------------|
Ab|-1-2-1-----------------------------------|
Eb|-------4-2-0-----------------------------|
Tap to rate this tab
 
# A B C D E F G H I J K L M N O P Q R S T U V W X Y Z