Song name
# A B C D E F G H I J K L M N O P Q R S T U V W X Y Z

Jimi Hendrix - Rock Me Baby tab

                          Rock Me Baby
                        Monterey pop festival 67


INTRO:

  3x
||--------------------||-------------------|
||-7------------------||-------------------|
||-9(11)-9p7----------||-------------------|
||----------9p7-9-9-9-||-9-9-9---7-7~---7--|
||--------------------||-------------------|
||--------------7-7-7-||-7-7-7---5-5~---5--|

------------|
------------|
---------7~-|
-9-9--9--7~-|
------------|
-7-7--------|

--------------------------------------------------|
--------------------------------------------------|
----------------7(8)7-----------------------------|
-9--9---9--9--9-------9-7h9-------9-7~-------9-9~-|
--------------------------------------------------|
-7--7---7--7-----------------7-7--------7-7-------|

------------------------------------------------------------------|
------------------------------------------------------------------|
-----9(11)-9(11)-9(11)-9----7-9(11)9-7----------------------------|
--------------------------9------------9-7-------9--7~-------9-7~-|
------------------------------------------------------------------|
-0-0---------------------0-------------------7-7--------7-7-------|

repeat intro

solo:

---------------------------10(12)-7-7---------------------------------------|
-------9(12)-10p7-----10p7----------10(12)-10p7---10p7---10p7----10(12)~~\\-|
--7~~-------------9p7---------------------------9------9------9-------------|
----------------------------------------------------------------------------|
----------------------------------------------------------------------------|
----------------------------------------------------------------------------|

-----------------------10-12-12(14)~~--10(11)-------10-12-------10--14(16)~--14(16)-14(16)-------|
-10p7----------7-10/12------------------------10h12-------10h12----------------------------12-12-|
------9-9(11)9-----------------------------------------------------------------------------------|
-------------------------------------------------------------------------------------------------|
-------------------------------------------------------------------------------------------------|
-------------------------------------------------------------------------------------------------|

-14(16)14-----------14(16)-------14(16)14-12p10----------10-12(14)12-10h12p10----|
----------12-12--12--------12-12----------------12-10-12----------------------12-|
---------------------------------------------------------------------------------|
---------------------------------------------------------------------------------|
---------------------------------------------------------------------------------|
---------------------------------------------------------------------------------|

----------------------------------------------------------------------------|
----------------------------10(12)10~-------10------10-------7--------------|
---------12(14)12-12p10-12~~----------9(11)----9(11)--9(11)~---9-7----------|
-11p9h11-----------------------------------------------------------9-7-9----|
-------------------------------------------------------------------------9~-|
----------------------------------------------------------------------------|

(really long trill probably accompanied by some owsley inspired stage acrobatics)
---------------------------------------------------------------------|
---------------------------------------------------------------------|
---------------------------------------------------------------------|
-7t9-----------------------------------------------------------------|
---------------------------------------------------------------------|
-7-------------------------------------------------------------------|

---------------------9-------6-10(12)--10(12)10-7--------------------|
------------7--9(11)---9(11)----------------------10(12)10-7---------|
-------7-9---------------------------------------------------9-7~~---|
--/9-7---------------------------------------------------------------|
---------------------------------------------------------------------|
---------------------------------------------------------------------|

------------------------------------------------------------------------------------------------------------|
-------------------10---------------------------------------------10-------------------10-------------------|
---------------9-7----9(11)-9(11)-9--9-9-----------7--------7--------9(11)-9(11)9p7-------9(11)-9(11)9p7----|
-9---9-7-9-9-9---------------------------7-9---7-9---7--7-9---7-9-------------------9~-------------------9~-|
------------------------------------------------------------------------------------------------------------|
-7-7--------------------------------------------------------------------------------------------------------|
 3x                                fills
-------------------------------||------------------------|----------------|
-------------------------------||------------------------|-10p7---10p7----|
-8-8---8--8----8--8---8--8--9--||-9(11)-9(11)-9(11)9p7---|------9------9--|
-9-9---9--9----9--9---9--9--10-||----------------------9-|----------------|
-------------------------------||------------------------|----------------|
-7-7---7--7----7--7---7--7--8--||------------------------|----------------|

-7-6--5-4--3-2--8--8--8--8--8--8--8--8--8--8------7~-|
-7-6--5-4--3-2--8--8--8--8--8--8--8--8--8--8------7~-|
-8-7--6-5--4-3--8--8--8--8--8--8--8--8--8--8------7~-|
-9-8--7-6--5-4--9--9--9--9--9--9--9--9--9--9------8~-|
-9-8--7-6--5-4--10-10-10-10-10-10-10-10-10-10-----9~-|
-7-6--5-4--3-2--8---8--8--8--8--8--8--8--8--8-----7~-|
Tap to rate this tab
# A B C D E F G H I J K L M N O P Q R S T U V W X Y Z