Song name
# A B C D E F G H I J K L M N O P Q R S T U V W X Y Z

Jimi Hendrix - Sunshine Of Your Love tab

        1
e------------------      <----repeat--| x8
b-------------------------------------|
g-------------------------------------|
d--------------3b---------------------|
a5-5-3-5------5--5~-------------------|
E--------5-4-3------------------------|
        2
e----------------------------------------------|
b----------------------------------------------|
g--------------3b------------------------------|
d-5-3-5-------5--5~             <------repeat--| x4
a--------5-4-3---------------------------------|
E----------------------------------------------|

now repeat 1 4 more times

       3
e---------------------------------------|
b---------------------------------------|
g---------------------------------------|
d---------------------------------------|
a---------------------------------------|
E-5-5-5-8-3-------------        repeat--| x4
Tap to rate this tab
# A B C D E F G H I J K L M N O P Q R S T U V W X Y Z