Song name
# A B C D E F G H I J K L M N O P Q R S T U V W X Y Z

Jimi Hendrix - Hey Baby Live tab

Jimi Hendrix - Hey Baby (New Rising Sun) live

Live at Berkeley. I like this very long intro. He plays the intro with some gain, but 
he starts playing clean with some effects. I can't tell you which one, I don't know. maybe 
flanger or tremolo. Just enjoy the amazing riffs!
tuning is standard

|--7--7h10p7---------------------------------7--7h10p7----------------------------------|
|------------10brp8-10----------8---10-\---------------10brp8-10----------8--(10)-------|
|-----------------------9p7-----7---9--\--------------------------9p7-----7---9---12-\--|
|---------------------------9-----------------------------------------9---7---9---12-\--|
|---------------------------------------------------------------------------------------|
|---------------------------------------------------------------------------------------|

|---------------------------------------------------------------------------------------|
|---------------------------------------------------------------------------------------|
|------------12--------------12---------------------------------------------------------|
|------------12--------12h14-12---------------------------------------------------------|
|----------------12h14-----------14\12p10h12\10p7--10------------------------0-h-2-h-3--|
|--3/10p0----------------------------------------------0---------0-h-1-h-3--------------|

|----------------------------------0-h-3p1p0h3p1p0h--(keep.on.doing.this)---------------|
|----------------------0-h-1-h-3-----------------------------------(quite.long...)------|
|--------------0-h-2--------------------------------------------------------------------|
|--0-h-2-h-3----------------------------------------------------------------------------|
|---------------------------------------------------------------------------------------|
|---------------------------------------------------------------------------------------|

|--3-p-1-p-0---------------------------------0---------0--1--3--1h3p1p0-------------0---|
|--------------3-p-1-p-0---------------------0--------------------------0h1p0h1--3------|
|--------------------------2-p-0-------------1------------------------------------------|
|----------------------------------3-p-2-p-0-2------------------------------------------|
|--------------------------------------------2------------------------------------------|
|--------------------------------------------0------------------------------------------|

|-------------------------------------0-------------------------------------------------|
|--3--1--0-----0--1--3--1h3p1-0-------0-------------------------------------------------|
|-----------2--------------------2----1-------------------------------------------------|
|-------------------------------------2-------------------------------------------------|
|-------------------------------------2-------------------------------------------------|
|-------------------------------------0-------------------------------------------------|

|---------------------------------------------------------------------------------------|
|---------------------------------------------------------------------------------------|
|-----------------------5-----------------------------------------------------------5---|
|-----------------------5-----------------------2--------------------------------5--5---|
|-----------0--2--3-----3-----------------------2-----------------0--1--2-----3-----3---|
|--0--1--3----------------------------0---------------0--1--2--3------------------------|
						   [pm__________________________]

|--------------------------------3-----3------------------------------------------------|
|--------------------------------3h5---3-----3----(3)-----------------------------------|
|--------------------------------------------2h4p2-2----------2h4-2--2--0--------------2|
|--2-----------0--1--2--3--------------------------------------------------0-----------0|
|--0--1--2--3---------------------------------------------------------------------------|
|--------------------------3------------------------------------------------------------|
[pm__________________________]

|---------------------------------------------------------------------------------------|
|--------------------2-----------------------0------------------------------------------|
|--------------------2-----------------------1------------------------------------------|
|--------------------2-----------------------2-----------3--2--1--0---------------------|
|3-------0-----0-----------------------------------------------------3--2--1--0---------|
|-----------------------3--------0-----------------------------------------------3------|

|---------------------------------------------------------------------------------------|
|---------------------------------------------------------------------------------------|
|--5------------------------------------------------------------------------------------|
|--5--------------------0--------------------------------------1--0-----3--1--0---------|
|--3-----------------2-----2--0--------1--0--------1--0--------------3-----------3--1--0|
|--------------1--3--------------3-----------3--1--------3--1---------------------------|

|---------------------------------------------------------------------------------------|
|---------------------------------------------------------------------------------------|
|--------8-----8-----------------6-----------------------------5-----------6-----------7|
|--------8----------(8)----------6-----6----(6)-------------------6--------7-----------8|
|--------6-----------6-----------4-----------4--------------6-----------7-----------8---|
|3-1--0-----------------6-----------------------3--------4-----------5-----------6------|

|---------------------------------------------------------------------------|
|---------------------------------------------------------------------------|
|--------9-----------------12----------------------10----------------5------|
|--------10----------------13----------------------11----------------6------|
|-----10-------------13----------------------11-------------------6---------|
|--8-----------11-------------6--------9--------------3--------4------------|

|-------------------------------------(8)-----------------------------------------------|
|--------------------------------------8------------------------------------------------|
|--------6-----------7-----------8-----9------------------------------------------------|
|--------7-----------8-----------9-----10-----------------------------------------------|
|-----7-----------8--------------------10-----------------------------------------------|
|--5-----------6-----------7--7--------8-----8--8--8-----8-----8-----8-----10----12-----|

|-(13)--------------------------------------------------------(6)---(6)-----------------|
|--13---------------------------------------------------------(6)---(6)-----------------|
|--14----------------------------------------------------------7-----7------------------|
|--15----------------------------------------------------------8-----8------------------|
|--15----------------------------------------------------------8-----8------------------|
|--13----13-13-13----13----13----13----13-12-10-8--6-----6-----6-----6-----6----(6)(6)--|

|--------------------------------------------------------0--0--0--0--0--0--|
|-----------------------2-----2-----0--------------------1--1--1--1--1--1--|
|--------7-----2--------2-----2-----0-----------2--------2--2--2--2--2--2--|
|--------8-----2--------2-----2-----0-----------3--------2--2--2--2--2--2--|
|--------8-----0----(0)----0-----------------------------------------------|
|--6-----------0-----------------3-----3--1--1-----1--1--------------------|
		[pm_____________________________________]

|--------------0-----------------------------------------------------------------0-----0-----0--|
|--------------1-----------------------0-----0-----------------------------------1-----1-----1--|
|--------------2-----2--2--0-----------0-----0-----------------2-----------------2-----2-----2--|
|--------------2-----2--2--0----------------------------(3)----3----(3)----------2-----2-----2--|
|--0--------0-----------------------------------------------------------------------------------|
|--------------------------------3-----------3-----1--------------------------------------------|

|--------------0-----------0-----------0-----0-----------------0-----------------0-----0-----0--|
|--------------1-----------0-----------3h5---0-----------------------------------1-----1-----1--|
|--------------2-----------0-----------------------------2-----------2-----2-----2-----2-----2--|
|--------2-----2-----2-----.-----------------------------3-----------3-----3-----2-----2-----2--|
|--0-----------------------------------------------------------------------.--------------------|
|--------------------------------3-----------------1--------------------------------------------|

|--------------0-----0-----------------------------------------0-----------------0-----0-----0--|
|--------1-----1-----1-----------3-----3-----3-----------------------------------1-----1-----1--|
|--------------2-----2-----------4-----4-----4-----------2-----------2-----------2-----2-----2--|
|--------------2-----2-----------5-----5-----5-----------3-----------3-----------2-----2-----2--|
|--0--------------------------------------------------------------------------------------------|
|--------------------------3-----------------------1--------------------------------------------|

|--------------0h1h3p1-p0-----------------------------------------------------------------------|
|-------(1)----------------0----h1-----3-----b-----r-----------1h3p1p0-----0-----1-----1-----3--|
|-----------------------------------------------------------------------2-----------------------|
|-----------------------------------------------------------------------------------------------|
|--0--------------------------------------------------------------------------------------------|
|-----------------------------------------------------------------------------------------------|

|--------------------------------------------------------------------------------0-----0-----0--|
|--3b----------------------1-p0-h1---3b--1---------1--3--3b----3-----------------1-----1-----1--|
|--------------------------------------------2-----------------------------2-----2-----2-----2--|
|--------------------------------------------------------------------------3-----2-----2-----2--|
|--------------------------------------------------------------------------.--------------------|
|-----------------------------------------------------------------------------------------------|

|--------------------------------------------------------------------------------0-----0-----0--|
|----------10--12-10-------------------------------------------------------------1-----1-----1--|
|--------9-----------------------7--9--7-----------------------2-----2-----2-----2-----2-----2--|
|-----10----------------------9-----------9--------------------3-----3-----3-----2-----2-----2--|
|--12------------------12--10-------------10-------------------------------.--------------------|
|--------------------------------------------------1-----1--------------------------------------|

|--------------------------------------------------------------0--------------------------------|
|--------------1-----1-----------------3-----3--------------------------------------------------|
|--------------2-----2-----------------4-----4-----------2-----------2--------------------------|
|--------------2-----2-----------------5-----5-----------3-----------3-----------------------10-|
|--0-----0-------------------------------------------------------------------------------/12----|
|--------------------------3-----3-----------------1--------------------------------------------|

|-----------------------------------------------------------------------------------------------|
|-----------------------------------------------------------------------------------------------|
|-----------------------------------------------------------------------------------------------|
|12/14---------------------12h14-12h14-12h14-12-14-12----------------------------------14----12-|
|-----------------------------------------------------------------------------------------------|
|-----------------------------------------------------------------------------------------------|

|-----------------------------------------------------------------------------------------------|
|-----------------------------------------------------------------------------------------------|
|-----------------------------------------------------------------------------------------------|
|--10h12p10\9-\7-/9-/10h12-12b---12-10h12p10\9-\7-----------------------------------------------|
|-------------------------------------------------/7--------------------------------------0-h2/3|
|--------------------------------------------------------------------------------0-h1-/3--------|

|--------------------------0-----3----/5----------/5-----5-----5----\----------8-----7----5--5-3|
|-----------------0-h1-/3-----------------------------5-----5-----5-\-------5-----5-----5-------|
|-----------0-h2--------------------------------------------------------------------------------|
|--0-h2-/3--------------------------------------------------------------------------------------|
|-----------------------------------------------------------------------------------------------|
|-----------------------------------------------------------------------------------------------|

|-----3b---------5-----3----------------3----------------------------------------0-----0-----0--|
|----------------------------5--3-/5--3-----3-/5---------------------5\----------1-----1-----1--|
|--------------------------------------------------------------------------------2-----2-----2--|
|--------------------------------------------------------------------------------2-----2-----2--|
|-----------------------------------------------------------------------------------------------|
|-----------------------------------------------------------------------------------------------|

|--------------7-----------------------------------------------------------------0-----0-----0--|
|-------------(5)----5-----0-----------3-----3-----------------------------------1-----1-----1--|
|-------------(5)----5-----0-----------4-----4-----------------2-----------2-----2-----2-----2--|
|--------------------7-----0-----------5-----5-----------------3-----------3-----2-----2-----2--|
|--------------------.-----.-----------------------------------------------.--------------------|
|--5-----------------------------3-----------------1-----1--------------------------------------|
				    [pm_________]

|--------------------------------------------------------------------------------0-----0-----0--|
|--------------------------------------------3-----------------------------------1-----1-----1--|
|--------------------------------------------4-----------------2-----2-----2-----2-----2-----2--|
|--------------------------------------------------------------3-----3-----3-----2-----2-----2--|
|--------------4-----4-----------------------------------------------------.--------------------|
|--5-----5-----------------3-----3-----------------1-----1--------------------------------------|

|-------------------------------------------------------------------------------(0)---(0)---(0)-|
|--1-----------1-----1-----------------3-----1-----1--/--3----/5-----3-----1----(1)---(1)---(1)-|
|--------------2-----2-----------------4-----2-----2--/--4----/5-----4-----2----(2)---(2)---(2)-|
|--------------2-----2-----------------------------------------------------3----(2)---(2)---(2)-|
|-----------------------------------------------------------------------------------------------|
|--------------------------3-----3--------------------------------------------------------------|

|--------------0h1h3p1p0---------------------------------------------------------0-----0-----0--|
|----------------------------0h1-------5p3p1p0-------0h1-------3b-r-p1-----------1-----1-----1--|
|--------------------------------2-----------------2--------------------2--------2-----2-----2--|
|--------------------------------------------------------------------------------2-----2-----2--|
|-(0)-------------------------------------------------------------------------------------------|
|-----------------------------------------------------------------------------------------------|

|--------------------------------------------------------------0-----------------0-----0-----0--|
|--------------------------------------3-----3-----------------1-----------------1-----1-----1--|
|--------------------------------------4-----4-----------2-----------2-----------2-----2-----2--|
|--------------------------------------------------------3-----------3-----------2-----2-----2--|
|--0----(0)-------------------------------------------------------------------------------------|
|--------------------------3-----3-----------------1--------------------------------------------|

|--------------------------------------------------------------------------------0-----0-----0--|
|--------------1-----------------------3-----3-----------------------------------1-----1-----1--|
|--------------2-----------------------4-----4-----------------2-----2-----2-----2-----2-----2--|
|--------------2-----------------------------------------------3-----3-----3-----2-----2-----2--|
|--0-----0-----------------------------------------------------------------.--------------------|
|--------------------------3-----3-----------------1-----1--------------------------------------|

|-------------------------------------------/5-----3-----1-----0-----------------0-----0-----0--|
|--------------1-----------------------3--------------------------3--1--0--------1-----1-----1--|
|--------------2-----------------------4-----------------------------------0-----2-----2-----2--|
|--------------2-----------------------.-----------------------------------------2-----2-----2--|
|--0-----0--------------------------------------------------------------------------------------|
|--------------------------3-----3--------------------------------------------------------------|

|--------------------------------------------------------------0-----------------0-----0-----0--|
|-------------(1)----------------------3--3--3--3--------------1-----------------1-----1-----1--|
|-------------(2)----------------------4--4--4--4--------2-----2-----2-----2-----2-----2-----2--|
|-------------(2)----------------------------------------3-----------3-----3-----2-----2-----2--|
|--0-----0-----------------------------------------------------------------.--------------------|
|--------------------------3-----3-----------------1--------------------------------------------|

|--------------------------------------------------------------1h3p1-------0-----0-----0-----0--|
|--------------------------------------3-----------------------------0h1h3-------1-----1-----1--|
|--------------------------------------4-----------------------------------------2-----2-----2--|
|--------------------------------------------------------------------------------2-----2-----2--|
|--------------4-----4--------------------------------------------------------------------------|
|--5-----5-----------------3-----3-----------3-----1-----1--------------------------------------|

|-----------------------------------------------------------------------------------------------|
|--------------1-----1-----------------3--3--3--3--1--1--1--1--1--1--1--1--1-----5-----5-----5--|
|--------------2-----2-----------------4--4--4--4--2--2--2--2--2--2--2--2--2-----6-----6-----6--|
|--------------2-----2--------------5--5--5--5--5--3--3--3--3--3--3--3--3--3-----7-----7-----7--|
|--0-----0----------------------(5)-5--5--5--5--5--3--3--3--3--3--3--3--3--3-----7-----7-----7--|
|--------------------------3-----3--3--3--3--3--3--1--1--1--1--1--1--1--1--1-----5-----5-----5--|

you can play the C#-chord on the 9th freed, too. i show you bit later in this tab how to do.
|-----------------------------------------------------------------------------------------------|
|--------5-----5-----5-----------6-----6--6--6--6-----------------------------------------------|
|--------6-----6-----6-----------6-----6--6--6--6-----12-12-12-12-12-12-12-11-11-11-11-10-10-10-|
|--------7-----7-----7-----------6-----6--6--6--6-----------------------------------------------|
|--------------------------4--------------------------------------------------------------------|
|--5-----------------------------------------------10-------------------------------------------|

|-----------------------------------------------------------------------------------------------|
|--------5-----5--5--5--5--------------6--6--6--6--------15-15-15-15-15-15-------15-14-12-------|
|10------6-----6--6--6--6-------(6)----6--6--6--6--11-------------------------11----------14-11-|
|--------7-----7--7--7--7--------6-----6--6--6--6--12----------------------12-------------------|
|--------------------------4-----------------------12-------------------------------------------|
|--5-----------------------------------------------10-------------------------------------------|

|-----------------------------------------------------------------------------------------------|
|--------------5-----5--5--------------6-----6--------------------------------------------------|
|--------------6-----6--6--------6-----6-----6--------------------------------------------------|
|--------------7-----7--7--------6-----6-----6--------------------------------------------------|
|--------------------------4-----------------------------10----10-10-10-10-9--9--9--9--8--8--8--|
|--5----(5)----------------------------------------10-------------------------------------------|

|-----------------------------------------------------------------------------------------------|
|--------5-----5--5--5--5--------------6--6--6--6--------------------------------------0--------|
|--------6-----6--6--6--6-------(6)----6--6--6--6-(11)---------------------------------1--------|
|--------7-----7--7--7--7--------6-----6--6--6--6-(12)---------------------------------2--------|
|8-------------------------4-----------------------12-------------------------------------------|
|--5-----------------------------------------------10----0-----0-----0-----0-----0-----------0--|

|-----------------------------------------------------------------------------------------------|
|--------0-----0-----------3-----3-----------7-----7--------------------------------------------|
|--------1-----1-----------4-----4-----------8-----8--------------------------------------------|
|--------2-----2-----------5-----5-----------9-----9-----------12----12-------------------------|
|--------------------------------------------------------------12----12----------12----14p12----|
|--0-----------------3-----------------7-----------------10---------------/14----------------14-|

|--------------5--------------------------------------------------0--------------0-----0-----0--|
|--------------5-----------------------5-----------------------3-----------------1-----1-----1--|
|-----------------------------------4-----4-----------------2--------2-----------2-----2-----2--|
|--------7-------7---------------5-----------------------3-----------------------2-----2-----2--|
|--------7-------7------------------------------------------------------------------------------|
|--5---------------------5-3---------------------3-1--------------------------------------------|
[pm___________________________________________________________________________]

|--------------------10-------------------------------------------------------------------------|
|--------------10-13-------13-b--------------10----13-10----------------------------------------|
|--------------------------------------------------------------------------------------------14\|
|-----------------------------------------------------------------------------------------------|
|-----------------------------------------------------------------------------------------------|
|-----------------------------------------------------------------------------------------------|

|-------------------------------------------------------------------------------(0)---(0)---(0)-|
|-------------------------------------------------------------------------------(1)---(1)---(1)-|
|12\9---/12\9--------------9-11-----11p9\7------7-\5-\2--4-/5--7----------------(2)---(2)---(2)-|
|-------------------------------------------------------------------------------(2)---(2)---(2)-|
|-----------------------------------------------------------------------------------------------|
|-----------------------------------------------------------------------------------------------|

|-----------------------------------------------------------------------------------------------|
|-----------------------------------------------------------------------------------------------|
|-----------------------------------------------------------------------------------------------|
|------------------10h12p10-7h10p7--7---------------------10-10-12-12-14------------------------|
|-----------------12-------------10-----------10-12-14-14---------------------------------------|
|---------------------------------------10-12---------------------------------------------------|

|-----------------------------------------------------------------------------------------------|
|-----------------------------------------------------------------------------------------------|
|-----------------------------------------------------------------------------------------------|
|--14-\12--\11-------------11/12\11----\9--\7--/9-------------/10-------------------------------|
|-----------------------------------------------------------------------------------------------|
|-----------------------------------------------------------------------------------------------|

|-----------------------------------------------------------------------------------------------|
|--------------------------------------------------------------------------------15----13-------|
|--------------------------------------12----14----16----------------------------------------14-|
|--10-10-14----12----14-------------------------------------------------------------------------|
|-----------------15----------------------------------------------------------------------------|
|-----------------------------------------------------------------------------------------------|

|-----------------------------------------------------------------------------------------------|
|-----------------------------------------------------------------------------------------------|
|12h14---------14\12----------------------------------------------------------------------------|
|--------------------14\12-10----12----14----------14-------------------------------------------|
|--------------------------------------------12-------------------------------------------------|
|-----------------------------------------------------------------------------------------------|

|--15b---------------------15----12----------------------------------------------------------------|
|--------------------------------------15-17-15131213-15-15b----------------15brp13----13-15-1513--|
|---------------------------------------------p-p-----------------------------------14--------p----|
|--------------------------------------------------------------------------------------------------|
|--------------------------------------------------------------------------------------------------|
|--------------------------------------------------------------------------------------------------|

|--------------------------------------------------------------------------------0-----0-----0--|
|--13----------------------------------3-----------------------1-----------------1-----1-----1--|
|14------14-------------------------------4--------------------2-(2)-------2-----2-----2-----2--|
|--------------------------------------------------------------------------3-----2-----2-----2--|
|--------------------------------------------------------------------------.--------------------|
|--------------------1--/--3----(3)----------------1----(1)-------------------------------------|

|--------------------------------------5-p3--------------------------------------0-----0-----0--|
|--------------1-----1-----------------3-----3-h5--5-p3-------(1)---(1)----------1-----1-----1--|
|--------------2-----2----------------------------------------(2)---(2)----2-----2-----2-----2--|
|--------------2-----2-----------------------------------------------------3-----2-----2-----2--|
|--0-----0-----------------------------------------------------------------.--------------------|
|--------------------------3-----3--------------------------------------------------------------|

|--------------------------------------------------------------------------------0-----0--------|
|--------------1-----1-----------------3-p0--------------------------------------1-----1--------|
|--------------2-----2-----------------------------------------3--2--0-----------2-----2--------|
|--------------2-----2--------------------------------------------------3--------2-----2--------|
|--0-----0-----------------------------------------------0--2-----------------------------------|
|--------------------------3-----3-----------------1--3-----------------------------------3-----|

|--------------------------------------------------------------0-----------0-----0-----0-----0--|
|--------------1-----1-----------------3-----3-----------1-----1-----1-----1-----1-----1-----1--|
|--------------2-----2-----------------4-----4-----------2-----------2-----2-----2-----2-----2--|
|--------------2-----2-----------------5-----5-----------------------------2-----2-----2-----2--|
|--0-----0--------------------------------------------------------------------------------------|
|--------------------------3-----3-----------------1--------------------------------------------|

|--------------------------------------5-----------------------3-/5-\3-----------0-----0-----0--|
|--------------1-----1--------------------3--------------------3-/5-\3-----------1-----1-----1--|
|--------------2-----2--------------4--------4--------------x--------------------2-----2-----2--|
|--------------2-----2-----------5-----------------------x-----------------------2-----2-----2--|
|--0-----0--------------------------------------------------------------------------------------|
|--------------------------3-----------------------x--------------------------------------------|

|--------------------------------------------------------------------------------0-----0-----0--|
|--------------1-----1-----------------5-\3--------5-\3-p0-----------------------1-----1-----1--|
|--------------2-----2-----------------4-\2--------4-\2-p0-----------------------2-----2-----2--|
|--------------2-----2-----------------------------------------------------------2-----2-----2--|
|--0-----0--------------------------------------------------------------------------------------|
|--------------------------3-----3--------------------------------------------------------------|

|--------------------------------------------------------------------------------0-----0-----0--|
|--------------------------------------------------------------1-----1-----------1-----1-----1--|
|--------------------------------------------------------------2-----2-----------2-----2-----2--|
|--------2-----------------------------5p0---------------------------------------2-----2-----2--|
|--0-----------3----(2)-------------------------------------------------------------------------|
|--------------------------3----(3)----------------1----(1)-------------------------------------|

|--------------------------------------------------------------0-----------------0-----0-----0--|
|--------------1-----1-----------------3-----3-----------1-----1-----1-----------1-----1-----1--|
|--------------2-----2-----------------4-----4-----------2-----------2-----------2-----2-----2--|
|--------------2-----2-----------------5-----5-----------------------------------2-----2-----2--|
|--0-----0--------------------------------------------------------------------------------------|
|--------------------------3-----3-----------------1--------------------------------------------|

|-----------------------------------------------------------------------------------------------|
|--------------1-----1-----------3-----3--3--3--3--1--1--1--1--1--1--1--1--1--------------------|
|--------------2-----2-----------4-----4--4--4--4--2--2--2--2--2--2--2--2--2--------------------|
|--------------2-----2-----------5-----5--5--5--5--2--2--2--2--2--2--2--2--2-----7-----7-----7--|
|--0-----0-----------------------x-----x--x--x--x--x--x--x--x--x--x--x--x--x-----7-----7-----7--|
|--------------------------3-----3-----3--3--3--3--1--1--1--1--1--1--1--1--1-----5-----5-----5--|

so here is the C#-chord on the 9th freed. maybe it's better to play it like this.
|-----------------------------------------------------------------------------------------------|
|--------5-----5-----5-----------9-----9-----9--------------------------------------------------|
|--------6-----6-----6-----------10----10----10-------12-12-12-12-12-12-12-12-14-14-14-16-16-14-|
|--------7-----7-----7-----------11----11----11-------------------------------------------------|
|-----------------------------------------------------------------------------------------------|
|--5-----------------------9-----------------------10-------------------------------------------|

|--------------------------------------------------------------12-------------------------------|
|--------5-----5-----5-----------9-----9-----9-----------12/15----15-12/15-15/17(17)17\15(15)15-|
|--------6-----6-----6-----------10----10----10-------------------------------------------------|
|--------7-----7-----7-----------11----11----11-------------------------------------------------|
|-----------------------------------------------------------------------------------------------|
|--5-----------------------9-----------------------10-------------------------------------------|

|-------------------------------------------------------------------------------------------------|
|--------5-----5-----5-----------9-----9-----9----------------------------------------------------|
|--------6-----6-----6-----------10----10----10---------------------------------------------------|
|--------7-----7-----7-----------11----11----11---------/17----17-17-17-17-16-16-16-16-15-15-15-15|
|--------------------------------------------------------0----------------------------------------|
|--5-----------------------9-----------------------10---------------------------------------------|

|-----------------------------------------------------------------------------------------------|
|--------5-----5-----5-----------9-----9-----9--------------------------------------------------|
|--------6-----6-----6-----------10----10----10-------------------------------------------------|
|--------7-----7-----7-----------11----11----11-------------------------------------------------|
|-----------------------------------------------------------------------------------------------|
|--5-----------------------9-----------------------10----0--0--0--0--0--0--0--0--0--0--0--0--0--|

|-----------------------------------------------------------------------------------------------|
|--------0-----0-----------3-----3-----------7-----7--------------------------------------------|
|--------1-----1-----------4-----4-----------8-----8--------------------------------------------|
|--------2-----2-----------5-----5-----------9-----9-----------12----12-------------------------|
|--------------------------------------------------------------12----12----------12----14p12----|
|--0-----------------3-----------------7-----------------10---------------/14----------------14-|

|-(5)-|
|-(5)-|
|-(6)-|
|--7--|
|--7--|
|--5--|

h: hammer on
p: pull off
b: bend
/: slide up
\: slide down
x: mute note
(x): ghost note
.: staccato. play the note and mute it straight after picking.
Tap to rate this tab
# A B C D E F G H I J K L M N O P Q R S T U V W X Y Z