Song name
# A B C D E F G H I J K L M N O P Q R S T U V W X Y Z

Jimi Hendrix - Cherokee Mist tab

Cherokee Mist by Jimi Hendrix:

e---------------------------------------------------------------------|
b---------------------------------------------------------------------|
g---------------------------------------------------------------------|
d---33333333--8----3 x8-8s10--3 x8---10s8s10--3 x8--8---6--3 x8--6--8-|
a---11111111--6----1 x8-6s8---1 x8---8s6s8----1 x8--6---4--1 x8--4--6-|
e---------------------------------------------------------------------|

e--------------------------------------------------------------------|
b------------------------------------10------12b-12---12b-12---------|
g-----------8--------------------7s9------------------------9s11--9--|
d-3-x8------8-------3-x8---------------------------------------------|
a-1-x8--6------4----1-x8---------------------------------------------|
e--------------------------------------------------------------------|

e--------------------------------------------------------------------|
b-------10-------------------10--------------------------------------|
g--9s11-----7s9---7-----7s9-----7s9---7------------------------------|
d-------------------9-------------------9----------------------------|
a--------------------------------------------------------------------|
e--------------------------------------------------------------------|

It probably sounds a little bit off but this is my first tab and I put this down
by ear. This is one of my favourite Hendrix's songs and when i searched for a tab, I couldn't
any so I went about making my own and this might not be the whole song but it might help 
in learning it.

Thanksss.
Tap to rate this tab
 
# A B C D E F G H I J K L M N O P Q R S T U V W X Y Z