Song name
# A B C D E F G H I J K L M N O P Q R S T U V W X Y Z

Jimi Hendrix - Voodoo Chile 2 tab

Help us improve GuitareTab! Take a short survey!
Here' the intro to Voodoo Chile by Jimi. Use a kick ass Wah pedal for the intro til u get to the chords. then use distortion til the part where u bend the 2 to 4. use ur wah on that. This tune is kickin. Cya. Email me at Sslipknotc@aol.com

E| -------------------------------------------
B| -------------------------------------------
G| -/9-----7------------/9-----pb10-9b10-7-x-x
D| ----7h9---5-5-7p5-------7h9-------------x-x
A| ------------------7---------------------x-x
E| ----------------------------------------x-x

e| --------------------------------------------------
B| -----------------------------10b12-10b12-10-8-----
G| -/9-----7-----------/9-----7------------------9v--
D| ----7h9---5-5-7p5------7h9------------------------
A| ------------------7-------------------------------
E| --------------------------------------------------

e| --------------------------------------------------
B| --------------------------------------------------
G| -----2b4r2p0---------------2b4r2p0----------------
D| -2-2---------2-2---2---2-2---------2-2---2--------
A| -2-2---------2-2---2---2-2---------2-2---2--------
E| -0-0---------0-0-3-0---0-0---------0-0-3-0--------

e| ---------------------------------------------------------
B| ---------------------------------------------------------
G| -12b14-12b13-12-10v------2b4r2p0------------2b4r2r2r2r2r2
D| ---------------------2-2----------2-2---2----------------
A| ---------------------2-2----------2-2---2----------------
E| ---------------------0-0----------0-0-3-0----------------
Related for Voodoo Chile 2 tab