Song name
# A B C D E F G H I J K L M N O P Q R S T U V W X Y Z

Jimi Hendrix - Burning Of The Midnight Lamp tab

e|------------------------------------------------------------------------1-1-1--|
B|--------------------------------------------------------------1-1-1-1-1-3-3-3--|
G|--------------------------------------------------------------2-2-2-2-2-2-2-2--|
D|-----3-2---0-0-----3-2---0-2-------3-2---0-0---0-2--2-3-2-0-2-3-3-3-3-3--------|
A|---3-----3-----3-------3-----3---1-----3-----3---------------------------------|
E|-3---------------1-------------1-----------------------------------------------|

e|-1-1-1--2-2-2-2-2-----------------------------------2-2-2-2-2-------------|
B|-3-3-3--4-4-4-4-4-------------1-1-1-1-1--3-3-3-3-3--3-3-3-3-3--1-1-1-1-1--|
G|-2-2-2--4-4-4-4-4--1-1-1-1-1------------------------2-2-2-2-2--2-2-2-2-2--|
D|--------4-4-4-4-4--2-2-2-2-2--2-2-2-2-2------------------------3-3-3-3-3--|
A|-------------------2-2-2-2-2--3-3-3-3-3--2-2-2-2-2------------------------|
E|-----------------------------------------3-3-3-3-2------------------------|
Tap to rate this tab
# A B C D E F G H I J K L M N O P Q R S T U V W X Y Z