Song name
# A B C D E F G H I J K L M N O P Q R S T U V W X Y Z

Jimi Hendrix - Bleeding Heart tab

Well this is my first tab I've ever written. I hope it's ok.
THE TAB IS TUNED A HALF STEP DOWN.

D#|------------------------------7-----------|
G#|-10b12-12(10)-r10-10b12~--------10b11-----|
C#|-------------------------9b11~--------7~~~|
F#|------------------------------------------|
A#|------------------------------------------|
D#|------------------------------------------|

I know those arn't the exact notes but all he really uses is just first string root note 
pentatonic position. I think he uses his whammy bar just slightly

The playing he uses during the chord progression:
          B
|---10---------------|
|---10---------------|
|--------------------|REAPEAT TWICE
|---------7-7--------|
|-----7H9----9P8P7P0-|
|-7------------------|
          A
|---7----------------|
|---7----------------|
|--------------------|REAPEAT TWICE
|---------5-5--------|
|-----5H7----7P6P5P0-|
|-5------------------|

Then you repeat B riff again twice then:

|--------------|-------------------|
|--------------|-------------------|
|--------------|-------------------|
|---7--/7-/5-/7|-/9(hold the tone)-|
|-5-5----------|-/7(hold the tone)-|
|--------------|-------------------|

This prety much repeats throughout the whole song.
Of course you have to stop once in a while to solo though :P.

Hope this was atleast a little bit helpful.
~canadaguitarist~
Tap to rate this tab
# A B C D E F G H I J K L M N O P Q R S T U V W X Y Z