Song name
# A B C D E F G H I J K L M N O P Q R S T U V W X Y Z

Jimi Hendrix - Voodoo Child tab

Try to prevent it from ringing (unless it has the < symbol after it), but do not palm mute....


***
<  = Let Ring
***


Intro

e----------------------------------------
b----------------------------------------
g---9<--9------------7-------9<---9--9<--
d---------7-9---5-5----7--------9--------
a------------------------7---------------
e----------------------------------------


Main riff			
		
e----------------------------------------------------------
b----------------------------------------------------------
g------------2b4b2p0------------2b4b2p0--------------------
d---2-2-2-2-----------2-2-2-2-2----------------------------
a---2-2-2-2-----------2-2-2-2-2----------------------------
e---0-0-3-0-----------0-0-0-3-0-------------12/0-----------

Main Riff 

e----------------3-3-3-------------------------------------
b----------------3-3-3-------------------------------------
g----------------------------------------------------------
d----2-2-2-2-2---------------------------------------------
a----2-2-2-2-2---------------------------------------------
e----0-0-0-3-0---------------------------------------------


about 0:45 on the cd

a----------------------------------------------------------
d----------------------------------------------------------
e---2b4 (hold and use wah)---------------------------------
d------------(since it goes wah wah wah wah wah)-----------
a----------------------------------------------------------
e----------------------------------------------------------

{main riff}

solo

e----------------------------------------------------------
b-15b17-15-15b17-15-12-15----------------------------------
g------------------------14------12h14--14b16-------12h14--
d---------------------------12h14-------------12h14--------
a----------------------------------------------------------
e----------------------------------------------------------


e----------------------------------------------------------
b----------------------------------------------------------
g--14b16-b16---14-12--/2-----------------------------------
d----------------------------------------------------------
a----------------------------------------------------------
e----------------------------------------------------------

{main riff}

e----------------------------------------------------------
b----------------------------------------------------------
g----------------------------------------------------------
d-------------0--2-----------------------------------------
a--------0--2----------------------------------------------
e---0--3--------------0-3-0--------------------------------

Well I stand up next to a mountain

e------------3--0-----0----------------------------------
b---0--3--0--------3-------------------------------------
g--------------------------------------------------------
d--------------------------------------------------------
a------------------------------2--2--2-------------------
e------------------------------0--3--0-------------------

e----------------------------------------------------------
b---0--h3p0--h3p0 h3p--------------------------------------
g---------------------0h2p0--------------------------------
d----------------------------------------------------------
a-----------------------------2--2--2--2-------------------
e-----------------------------0--0--3--0-------------------

chopit down with the edge of my hand

e----------------------------------------------------------
b----------------------------------------------------------
g-----4-4-4-4-4-4-4-4-2-2-2-2-2-2-2-2----------------------
d-----0-0-0-0-0-0-0-0-0-0-0-0-0-0-0-0----------------------
a-----5-5-5-5-5-5-5-5-4-4-4-4-4-4-4-4----------------------
e----------------------------------------------------------

Tap to rate this tab
# A B C D E F G H I J K L M N O P Q R S T U V W X Y Z