Song name
# A B C D E F G H I J K L M N O P Q R S T U V W X Y Z

Jimi Hendrix - Hear My Train A Comin tab

e|-------------------------------------------------------------------|
B|-------------------------------------------------------------------|
D|-------------------------------------------------------------------| x3
G|-------------------------------------------------------------------|
A|-------------5/7--5/7--x--5--0-------------------------------------|
E|--------------------------------3b0--------------------------------|


e|-------------------------------------------------------------------|
B|-------------------------------------------------------------------|
D|-------------------------------------------------------------------|
G|------------------------------------------------------5p6----------|
A|---5/7-------77--5b0-------5/7--------7--5b0----5-6-7--------------|
E|--------3/7--77------3b0-------0-3/7--7------3---------------------|


e|-------------------------6-------------xx--6----------------------|
B|-------------------------6-7b0---------xx--6-7b0------------------|
D|--------------------------------4-7/9b------------4-7/9-4-7/14b12-|
G|------------------------------------------------------------------|
A|---------7-5b0-------xx-------------------------------------------|
E|---0-3/7 7------3b0--xx-------------------------------------------|


e|-----------------------|e|----------------------------------------|
B|-----------------------|B|----------------------------------------|
D|-14p12p14\-------------|D|----7-----------------------------------| x2
G|-----------------------|G|-/9---7/9\5-----------------------------|
A|-----------------------|A|------------7---------------------------|
E|-----------------------|E|----------------------------------------|


e|--------------------------------------xx--------------------------|
B|-----------------------7p9-7----------xx--7p9-7-------------------|
D|-----7/9-7b0------------------4-7/9-------------4-7/9-4-7/14b12---|
G|--/9---------5-----7/9------------------------------------------14|
A|---------------7--------------------------------------------------|
E|------------------------------------------------------------------|


e|------------------------------------------------------------------|
B|------------------------------------------------------------------|
D|------------------------------------------------------------------|
G|p12p14\-----------------------------------------------------------|
A|------------------------------------------------------------------|
E|12p10p12p10p12--7-6-5--3b0--12p10p12p10p12--7-6-5-3b--------------|


e|------------------------------------------------------------------|
B|------------------------------------------------------------------|
D|------------------12p14-12--------------------------14b14b12------|
G|------------------------------12/14--------------------------12b--|
A|---------------------------14-------------------------------------|
E|--12p10p12p10p12---------------------12p10p12p10p12---------------|
Tap to rate this tab
 
# A B C D E F G H I J K L M N O P Q R S T U V W X Y Z