Jimi Hendrix - The Wind Cries Mary tab

Jimi Hendrix - "The Wind Cries Mary"

Standard Tuning - EADGBE

\ = slide down
/ = slide up
b = full bending
h = hammer on
p = pull off
v = vibrato
ph = pinch harmonic

|--13\---------------------------------|
|--15\--13(13)--13-----13---13(13)-----|
|-------12h14---12-----12---12h14p12---|
|------------------15---------------15-|
|--------------------------------------|
|--------------------------------------|


|------------------------------|
|------------------------------|
|------10h12-10h12v---10v\-----|
|-10/12------------------------|
|------------------------------|
|------------------------------|



|--13\-----------------------|
|--15\--13(13)--13-----13----|
|-------12h14---12-----12----|
|------------------15--------|
|----------------------------|
|----------------------------|


|------------------------------------|
|------------------------------------|
|------10h12--10v---10h12---------10-|
|-10/12------------------10h12v------|
|------------------------------------|
|------------------------------------|


|--13\-----------------------|
|--15\--13(13)--13-----13----|
|-------12h14---12-----12----|
|------------------15--------|
|----------------------------|
|----------------------------|


|----------------------------|
|----------------------------|
|------10h12-----------------|
|-10/12------10h12v----------|
|----------------------------|
|----------------------------|


|--15(15)15------------------------------|
|--15h17p15---15(15)15-----15(15)15(15)--|
|-------------14h16p14-----14h16-14h16---|
|-----------------------17---------------|
|----------------------------------------|
|----------------------------------------|


|----------------------------------|
|-------10(10)-11------------------|
|-10(10)10h12-----10(10)1010-------|
|-10h12-----------12h13-131312v----|
|----------------------------------|
|----------------------------------|


|------------------9-------------|
|--12b-12-9------9---------------|
|-----(ph)---11b------11---9v----|
|--------------------------------|
|--------------------------------|
|--------------------------------|


|-13(13)13----------------------------|
|-13h15-13----13(13)13----13(13)13----|
|-------------12h14-12----12h14-12----|
|----------------------15-------------|
|-------------------------------------|
|-------------------------------------|

|-----------------------------|
|-----------------------------|
|-10(10)-10-------------------|
|-10h12----12-10--------------|
|-----------------13-----12v--|
|-----------------------------|
Tap to rate this tab
 
# A B C D E F G H I J K L M N O P Q R S T U V W X Y Z