Song name
# A B C D E F G H I J K L M N O P Q R S T U V W X Y Z

Jimi Hendrix - Killing Floor tab

This is just the basic melody for the whole song, you can elaborate off of this. 
Use light distortion.

|--------------------------------------------------------|
|--------------------------------------------------------|
|-------------------5b----------------------5b-----------|
|-------5h7-7p5-5/7----7-7p5-7----7-7p5-5/7----7-7p5-5/7-|
|--------------------------------------------------------|
|-8p5-5------------------------5-5-----------------------|

|-----------------------------------------------------------|
|-------------------6b-------------------------6b-----------|
|-------5h7-7p5-5/7----7-7p5-5/7-----7-7p5-5/7----7-7p5-5/7-|
|-----------------------------------------------------------|
|-8p5-5--------------------------5-5------------------------|
|-----------------------------------------------------------|

|-----------------------------------------------------------------|
|---------------------8b-----------------------------6b-----------|
|--------7h9-9p7--7/9----9-9p7-7/9-------5h7-7p5-5/7----7-7p5-5/7-|
|-----------------------------------------------------------------|
|-10p7-7---------------------------8p5-5--------------------------|
|-----------------------------------------------------------------|

|--------------------------------------------------------|
|--------------------------------------------------------|
|---------------5b---------------------------------------|
|-----7-7p5-5/7----7-7p5-5/7-----------------------------|
|------------------------------------5-5-6-7-7-7-7-7-7-7-|
|-5-5------------------------5-5-8-8---------------------|

Repeat as desired.
Tap to rate this tab
 
# A B C D E F G H I J K L M N O P Q R S T U V W X Y Z