Song name
# A B C D E F G H I J K L M N O P Q R S T U V W X Y Z

Jimi Hendrix - Ezy Ryder tab

Tabbed by Sunny!

Solo from "Ezy rider" live!

Personthatusesmsn@hotmail.com


  Gtr I
|-14b16--16-14-14b16-14--11--------------------------11--13---13p11----11---------|
|-------------------------------------11---------11-----------------14-----16b18--|
|----------------------------13b15--------13b15-----------------------------------|
|---------------------------------------------------------------------------------|
|---------------------------------------------------------------------------------|
|---------------------------------------------------------------------------------|


|----------------------------------------------------------------13--11------11-|
|-18r16---11h14p11-------------------------------------------------------14-----|
|-------------------13--11-----11------11--13b15--13p11------11-----------------|
|--------------------------13------13--------------------13---------------------|
|-------------------------------------------------------------------------------|
|-------------------------------------------------------------------------------|


|--------11--------------------------14b16--14--14b16--14--14b16---14b16-|
|-14b16-----14p11--------------------------------------------------------|
|-----------------13--11------11-----------------------------------------|
|-------------------------13---------------------------------------------|
|------------------------------------------------------------------------|
|------------------------------------------------------------------------|


|-14--11--14------11--13---------------------------------------------------------------|
|-------------14----------11--14--14b16----14--11------11------------------------------|
|--------------------------------------------------13------13b15----13p11------11--13--|
|--------------------------------------------------------------------------13----------|
|--------------------------------------------------------------------------------------|
|--------------------------------------------------------------------------------------|


   ~~
|---------------------------16b18---16--14p11---------11----------------------------11--|
|-14--11-14-11---------------------------------14b16------11--14--14---14b16--11-14-----|
|--------------13-11-13-11--------------------------------------------------------------|
|---------------------------------------------------------------------------------------|
|---------------------------------------------------------------------------------------|
|---------------------------------------------------------------------------------------|


|---------------------14--16--16b18----18r16--14--16--14----16-16--18-18--21---|
|-11-------11---14s16----------------------------------------------------------|
|----13b15---------------------------------------------------------------------|
|------------------------------------------------------------------------------|
|------------------------------------------------------------------------------|
|------------------------------------------------------------------------------|
Tap to rate this tab
 
# A B C D E F G H I J K L M N O P Q R S T U V W X Y Z