Guitaretab - guitar tabs
Song name
# A B C D E F G H I J K L M N O P Q R S T U V W X Y Z

Jimi Hendrix - Wait Until Tomorrow tab

--------------------------------------------------------------

   JIMI HENDRIX - WAIT UNTIL TOMORROW. From AXIS: BOLD AS LOVE
                  album. Released on 1st December 1967.

--------------------------------------------------------------

    Tabbed by:PJVillanueva




Well Iím standing here freezing
Inside your golden garden
Got my ladder leaned up against your wall
Tonightís the night we planed to run away together
Come on Dolly Mae thereís no time to stall

But now youíre telling me..

I think we better wait ítill tomorrow,   yeah, yeah
I think we better wait ítill tomorrow
But oh!, What d'you talk about?
I think we better wait ítill tomorrow    yeah, yeah

Gotta make sure itís right
So untill tomorrow goodnight

Oh, what a drag!

Oh Dolly Mae, how can you hang me out this way?
On the phone you said you wanted to run off with me today
Now Iím sanding here like some
Turned down serenading fool
Hearing strange words stutter from the mixed-up mind of you

And you keep telling me ... that ah

I think we better wait till tomorrow,  We got to
I think we better wait till tomorrow   No, I can't wait back home
I think we better wait till tomorrow   Oh, no!

Gotta make sure, but itís right
Untill tomorrow goodnight. Oh!

See if I can talk to this girl a little bit here

Wow!, Dolly Mae, girl, you must be insane
So unsure of yourself
Leaning from your unsure window pane
Do I see a silhouette of somebody pointing
Something from a tree
Click bang! Oh, what a hang!, your daddy just shot poor me

And I hear you say ...as I fade away

We donít have to wait till tomorrow,  Hey!
Well I have to wair till tommorrow    What d'you say!
We donít have to wait till tomorrow

It must not have been right
So forever goodnight       Listen at your..!

We donít have to wait till tomorrow
I don't have no way, don't have no way!
We donít have to wait  till tomorrow
this is a drag on my part!
We donít have to wait till tomorrow
don't have no way there!


We donít have to wait till tomorrow
I don't have no way, don't have no way!
We donít have to wait till tomorrow
Yeah! don't have no way, don't have no way!
We donít have to wait till tomorrow
Oh, no!

I wonít be around tomorrow   Yeah!
We donít have to wait till tomorrow
Don't have to wait, baby
We donít have to wait till tomorrow
Right!, right!
We donít have to wait till tomorrow
Oh, honey meets a...




         Remember that you must tune your guitar a half step
         down to match Jimmy's recordings.


e|-------- -------- -------- --------|-------- -------- -------- --------|
B|9H10--9-10-9-9-9-------------------|7H8---7--8-7-7-7-------------------|
G|9-----9------9-9------9------------|7-----7------7-7------7------------|
D|9H11--9-11-9-9-9--9---9------------|7H9---7--9-7-7-7--7---7------------|
A|------------------9H11-------------|------------------7H9--------------|
E|---------------------------0-0-----|---------------------------0-0-----|


e|-------- -------- -------- --------|-------- -------- -------- --------|
B|9H10--9-10-9-9-9-------------------|7H8---7--8-7-7-7-------------------|
G|9-----9------9-9------9------------|7-----7------7-7------7------------|
D|9H11--9-11-9-9-9--9---9------------|7H9---7--9-7-7-7--7---7------------|
A|------------------9H11-------------|------------------7H9--------------|
E|---------------------------0-0-----|---------------------------0-0-----|
                                                                 Well I'm

                                                              D
  A                                       E7sus4      Dmaj7 D6
e|-------- 5------- ----5-5- --5-----|----5--- 5------- 9---7-5- --------|
B|---------5--------x---5-5----5-x---|x---3----3--------7---7-7------7-x-|
G|6--------6--------x---6-6----6-x---|x---4----4--------7---7-7------7-x-|
D|7--------7--------x---7-7----7-x---|x---2----2--------7---7-7------7-x-|
A|7--------7--------x---7-7----7-x---|-----------------------------------|
E|5--------5------------5-5----5-----|-----------------------------------|
  standing          freezing     inside  your  golden   garden
      here

                                                              D
  A                                       E7sus4      Dmaj7 D6
e|-------- 5------- -------- --------|-------- 5------- 9---7-5- --------|
B|---------5-------------------------|---------3--------7---7-7----------|
G|6---6----6---x-x-------------------|---------4--------7---7-7------7---|
D|7---7----7---x-x-------------7-9---|---------2--------7---7-7------7H9-|
A|7---7----7---x-x---------7H9-------|-----------------------------------|
E|5---5----5--------7/9--------------|0----------------------------------|
           Got my   ladder     leaned up  against  your wall          Tonightís


                                                              D      D
  A                                        E7sus4       D Dmaj7    D5
e|-------- 5------- -------- --------|-------- 5---2---10---9-7- --------|
B|---------5-------------------------|---------3---3----7---7-7---10-7---|
G|6--------6---6---------------------|---------4---4----7---7-7----7-7---|
D|7--------7---7----7H9P7------------|---------2---2----7---7-7----7-7---|
A|7--------7---7----7-----7H9--7-----|-----------------------------------|
E|5--------5---------------------9---|0----------------------------------|
           the      night        we   planned        together        Come on
                                           to  run away

                                                              D      D
  A                                        E7sus4       D Dmaj7    D5
e|-------- 5------- -------- --------|-------- 5-------10---9-7- --------|
B|---------5-------------------------|---------3---7----7---7-7---10-7---|
G|----6------------------------------|---------4--------7---7-7----7-7---|
D|7----------------------------7H9---|---------2--------7---7-7----7-7---|
A|-------------------------7H9-------|-----------------------------------|
E|------------------7H9--------------|0---0------------------------------|
           Dolly Mae        thereís no time    to  stall


e|-------- -------- -------- --------|-------- -------- -------- --------|
B|-----------10----10---10---1010--x-|10--1010---1010---1010--10-10-10-\-|
G|-----9-9--9-9-----9----9----9-9--x-|-9---9-9----9-9----9-9---9--9--9-\-|
D|----11-9-11------11P9H11P9H11----x-|-9H11--9H11---9H11---9H11---9-11-\-|
A|-----------------------------------|-----------------------------------|
E|-----------------------------------|-----------------------------------|
                But now   youíre
                             telling me ...


  E                                   Gadd9
e|-------- 7-7-7-7/ 9----7-7 /-9-----|-------- 5------- -------- --------|
B|-----------------------------------|---------3-------------------------|
G|---------7-7-7-7/-9----7-7-/-9-----|---------4-------------------------|
D|-----------------------------------|---------5------------2-4----2-4---|
A|-----------------------------------|------------------2H4--------------|
E|0----------------------------------|3---3--------x-x-------------------|
        I  think    wait ítill   tomorrow                   yeah,    yeah
             we better


  E                                   Gadd9
e|-------- 7-7-7-7/ 9----7--/-9--7---|-------- 5------- -------- --------|
B|-----------------------------------|---------3-------------------------|
G|---------7-7-7-7/-9----7--/-9--7---|---------4-------------------------|
D|-----------------------------------|---------5---------------2/4-2-4---|
A|-----------------------------------|------------------2H4--------------|
E|0---0------------------------------|3---3--------x-x-------------------|
        I  think    wait ítill   tomorrow
             we better
                                           But oh!,    What d'you talk about?

                                                             xxx x    xxx
  E                                   Gadd9
e|----7/9- 7/9----7/9----7--/-9--7---|-------- 5------- -------- --------|
B|-----------------------------------|---------3-------------------------|
G|----7/9--7/9----7/9----7--/-9--7---|---------4-------------------------|
D|-----------------------------------|---------5------------2-4----2-4---|
A|-----------------------------------|------------------2H4--------------|
E|0----------------------------------|3---3--------x-x-------------------|
        I  think    wait ítill   tomorrow      Yeah,    yeah
             we better


  x        x    xxx x   X      x x      X X    X     X    X X    X   X

e|-------- -------- -------- --------|-------- -------- -------- --------|
B|-----------------------------------|-----------------------------------|
G|-----------------------------------|-----------------------------------|
D|-----------------------------------|-----------------------------------|
A|-----------------------------------|-----------------------------------|
E|0----------------------------------|-----------------------------------|
  Gotta make sure itís right So  untill  tomorrow  goodnight.


  X

e|-------- -------- -------- --------|-------- -------- -------- --------|
B|9H10--9-10-9-9-9-------------------|7H8---7--8-7-7-7-------------------|
G|9-----9------9-9------9------------|7-----7------7-7------7------------|
D|9H11--9-11-9-9-9--9---9------------|7H9---7--9-7-7-7--7---7------------|
A|------------------9H11-------------|------------------7H9--------------|
E|---------------------------0-0-----|---------------------------0-0-----|
                 Oh,  what a drag!


                                                              D      D
  A                                          E7sus4     D Dmaj7    D5
e|-------- 5------- -------- --------|-------- 5------- 9---7-5- --------|
B|---------5-----10------------------|---------3--------7---7-7---10-7---|
G|6--------6------9--------9-----9---|---------4--------7---7-7----7-7---|
D|7--------7------9H11P9--11-----9---|---------2--------7---7-7----7-7---|
A|7--------7--------------12---------|-----------------------------------|
E|5--------5-------------------------|0----------------------------------|
     Oh   Dolly Mae,    how  can you  hang me  out this way

  A                                          E7sus4
e|-------- 5------- -------- --------|-------- 5------- -------- --------|
B|---------5-------10----10----------|---------3-------------------------|
G|6--------6--------9-----9----------|---------4-------------------2-4---|
D|7--------7--------9H11--9----------|---------2---------------2H4-------|
A|7--------7------------------12-9---|------------------2H4--------------|
E|5--------5-------------------------|0----------------------------------|
  On  the phone you said you wanted to run     me  today             Now I'm
                                         off with


  A                                        E7sus4     Dmaj7 D D5   D
e|-------- -------- -------- --------|-------- 5------- 9---7--- --------|
B|------10-------10------------------|---------3--------7---710----7-7---|
G|-------9--------9-----9-9-----9-9--|---------4--------7---7-7----7-7---|
D|------11P9------9H11--9-9----1111--|---------2--------7---7-7----7-7---|
A|0------------12--------------1212--|-----------------------------------|
E|-----------------------------------|0----------------------------------|
  standing         like some turned   serenading        fool
        here                     down


  A               Aadd9 A A6   A             E7sus4     Dmaj7 D D5   D
e|-------- 5------- 7---5--- --5-----|-------- 5------- 9---7--- --------|
B|---------5--------5---5-7----5-----|---------3--------7---710----7-----|
G|6--------6--------6---6-6----6-----|---------4--------7---7-7----7-----|
D|7--------7--------7---7-7----7-----|---------2--------7---7-7----7-----|
A|7--------7-------------------------|-----------------------------------|
E|5--------5-------------------------|0----------------------------------|
  Hearing        words  stutter       mixed-up mind of  you
         strange               from
                                 the


e|-------- ---9---- -------- --------|-------- -------- -------- --------|
B|---1010--1010-----10101010-1010----/10--x-x--x-x-----------------------|
G|----9-9---9-9------9-9-9-9--9-9----/-9--x-x--x-x-----------------------|
D|---11-9--11-------11-911-----------/11--x-x--x-x------------7--9-7-----|
A|-----------------------------------|------------------------7--9-7-9---|
E|-----------------------------------|---------------x--5-7/9--------9---|
       And you keep telling me                       that ah

  E                                   Gadd9
e|-------- 7-7-7-7/ 9------7/9-7-----|-------- 5------- -------- --------|
B|-----------------------------------|---------3-------------------------|
G|---------7-7-7-7/-9------7/9-7-----|---------4-------------------------|
D|-----------------------------------|---------5------------2-4----2-4---|
A|-----------------------------------|------------------2H4--------------|
E|0----------------------------------|3---3--------x-x-------------------|
        I  think    wait ítill   tomorrow                   We   got to
             we better


  E                                   Gadd9
e|-------- 7-7-7-7/ 9-----7- --7/9---|-------- 5---5--- -------- --------|
B|-----------------------------------|---------3---3---------------------|
G|---------7-7-7-7/-9-----7----7/9---|---------4---4----2-----2------2---|
D|-----------------------------------|---------5---5----2H4---2H4-P2-2---|
A|-----------------------------------|-------------------------------4---|
E|0---0------------------------------|3---3------------------------------|
        I  think    wait ítill   tomorrow
             we better                     No,     I    can't wait back home


  E                                   Gadd9
e|-------- 7-----7/ 9-----7- ----9---|-------- 5---5--- -------- --------|
B|-----------------------------------|---------3---3---------------------|
G|---------7-----7/-9-----7------9---|---------4---4---------------------|
D|-----------------------------------|---------5---5--------2----4H2-----|
A|-----------------------------------|------------------2H4----------4---|
E|0---0------------------------------|3---3------------------------------|
        I  think    wait ítill   tomorrow      Yeah,    yeah
             we better           Oh, no!

           x     x  X x x      x X x  x     x    X x    X   X    X   X

e|-------- -------- -------- --------|-------- -------- -------- --------|
B|-----------------------------------|-----------------------------------|
G|-----------------------------------|-----------------------------------|
D|-----------------------------------|-----------------------------------|
A|-----------------------------------|-----------------------------------|
E|0----------------------------------|-----------------------------------|
  Gotta     but itís right   Untill                goodnight.    Oh!
      make sure                    tomorrow

  X
[ Tab from: http://www.guitaretab.com/j/jimi-hendrix/27522.html ]
e|-------- -------- -------- --------|-------- -------- -------- --------|
B|9H10--9-10-9-9-9-------------------|7H8---7--7-7-7-7-------------------|
G|9-----9------9-9------9------------|7-----7--7-7-7-7------7------------|
D|9H11--9-11-9-9-9--9---9------------|7H9---7--7-7-7-7--7---7------------|
A|------------------9H11-------------|------------------7H9--------------|
E|---------------------------0-0-----|---------------------------0-0-----|
                                                                   See
                                                                    if
                                                                     I can
                                                                       talk

e|-------- -------- -------- --------|-------- -------- -------- --------|
B|9H10--9-10-9-9-9-------------------|7H8---7--8-7-7-7-------------------|
G|9-----9------9-9------9------------|7-----7------7-7------7------------|
D|9H11--9-11-9-9-9--9---9------------|7H9---7--9-7-7-7--7---7------------|
A|------------------9H11-------------|------------------7H9--------------|
E|---------------------------0-0-----|---------------------------0-0-----|
   to this
        girl a little
                   bit here

  A                                   E7sus4
e|-------- 5------- ----5-5- --5-----|----5--- 5------- -------- --------|
B|---------5--------x---5-5----5-x---|----3----3-------------------------|
G|6--------6--------x---6-6----6-x---|----4----4------------7------7-----|
D|7--------7--------x---7-7----7-x---|----2----2------------7-9----7-9---|
A|7--------7--------x---7-7----------|------------------7H9--------------|
E|5--------5------------5-5----------|0----------------------------------|
  Wow!,       Dolly Mae, girl    you  must be  insane                So unsure

  A                                   E7sus4          Dmaj7 D D5   D
e|-------- 5------- -------- --------|-------- 5------- 9---7--- --------|
B|---------5-------------------------|---------3--------7---710----7-7---|
G|6--------6--------9------9----9----|---------4--------7---7-7----7-7---|
D|7--------7--------9H11R9-9H11R9----|---------2--------7---7-7----7-7---|
A|7--------7-------------12------12--|-----------------------------------|
E|5--------5-------------------------|0---0------------------------------|
      of   yourself     Leaning       unsure   window   pane
                             from your


  A                                   E7sus4          Dmaj7 D D5   D
e|-------- -------- -------- --------|-------- 5------- 9---7--- --------|
B|-----------8----8----------8-------|---------3--------7---710----7-x---|
G|---9-------7----7----------7-------|---------4--------7---7-7----7-x---|
D|---9H11R9--9----7H9R7------7-------|---------2--------7---7-7----7-x---|
A|12-------12----------10--------10--|-----------------------------------|
E|-----------------------------------|0----------------------------------|
  Do  I    see a silhouette  of somebody something from
                                      point           a tree


  A                                   E7sus4          Dmaj7 D D5   D
e|-------- 5------- -------- --------|-------- 5------- 9---7--- --------|
B|---------5-----10-------8----8-8---|---------3--------7---710----7-----|
G|6--------6------9-------7----7-7---|---------4--------7---7-7----7-----|
D|7--------7------9H11R9--9----7-7---|---------2--------7---7-7----7-----|
A|7--------7------------12-----------|-----------------------------------|
E|5--------5-------------------------|0----------------------------------|
  Click bang!,      What a hang!, your         shot poor me
                                      daddy just

e|-------- -------- -------- --------|-------- -------- -------- 17--17-\|
B|-----------------------------------|----------------------17---17--17-\|
G|---------14----14-----14-----14----|14----14-----14-----1416B1818--18-\|
D|--- 14---1414--14-14--1414---1414--|1414--14-14--1414---14-------------|
A|--- 14H16--14B16--14H16-14H16--14H16--14H16--14H16-14H16---------------|
E|-----------------------------------|-----------------------------------|
     And I hear you say                   as  I  fade away

  E                                   Gadd9
e|-------- 7-7-7-7/ 9------7/9---7---|-------- 5-----5- -------- --------|
B|-----------------------------------|---------3-----3-------------------|
G|---------7-7-7-7/-9------7/9---7---|---------4-----4------2-4----2-----|
D|-----------------------------------|---------2-----2--2H4----------4-2-|
A|-----------------------------------|-----------------------------------|
E|0----------------------------------|3---3------------------------------|
           We don't wait ítill   tomorrow                   Hey!
               have to


  E                                   Gadd9
e|-------- 7-7-7-7/ 9------7/9---7---|-------- 5---5-5- -------- --------|
B|-----------------------------------|---------3---3-3-------------------|
G|---------7-7-7-7/-9------7/9---7---|---------4---4-4-------------------|
D|-----------------------------------|---------2---2-2------2------2-----|
A|-----------------------------------|------------------2H4----2H4---2H4-|
E|0----------------------------------|3---3------------------------------|
           We don't wait ítill   tomorrow               What d'you say?
               have to


  E                                   Gadd9
e|-------- 2/4----- 7/9---7-/9---7---|-------- 5---5--- -------- --------|
B|-----------------------------------|---------3---3---------------------|
G|---------2/4------7/9---7-/9---7---|---------4---4---------------------|
D|-----------------------------------|---------5---5----4-2------4-2-----|
A|-----------------------------------|----------------------4-2------4-2-|
E|0---0------------------------------|3---3------------------------------|
           We don't wait ítill   tomorrow                              It
               have to

           x     x  X x x      x X x  x     x    X x    X   X    X   X

e|-------- -------- -------- --------|-------- -------- -------- --------|
B|-----------------------------------|-----------------------------------|
G|-----------------------------------|-----------------------------------|
D|-----------------------------------|-----------------------------------|
A|-----------------------------------|-----------------------------------|
E|0----------------------------------|-----------------------------------|
  must not    have   right   so  forever           goodnight.    Listen
               been                                              at your..!


  E                                   Gadd9
e|-------- 4-4--4-7/9-----7-/9---7---|-------- 5-----5- -------- --------|
B|-----------------------------------|---------3-----3-------------------|
G|---------4-4--4-7/9-----7-/9---7---|---------4-----4-------------------|
D|-----------------------------------|---------5-----5------2------2-----|
A|-----------------------------------|------------------2H4----2H4---2H4-|
E|0----------------------------------|3---3------------------------------|
           We donít  wait till   tomorrow
               have to                    I             don't
                                                          have no way, don't

  E                                   Gadd9
e|-------- 4-4--4-7/9-----7-/9---7---|-------- 5---5--- -------- --------|
B|-----------------------------------|---------3---3---------------------|
G|---------4-4--4-7/9-----7-/9---7---|---------4---4---------------------|
D|-----------------------------------|---------5---5----4-2------4-2-----|
A|-----------------------------------|----------------------4-2------4-2-|
E|0----------------------------------|3---3------------------------------|
           We donít  wait till   tomorrow
               have to
  have                                         this          on  my  part!
     no way!                                     is a drag


  E                                   Gadd9
e|-------- 4-4--4-7/9------7/9---7---|-------- 5------- -------- --------|
B|-----------------------------------|---------3-------------------------|
G|---------4-4--4-7/9------7/9---7---|---------4-------------------------|
D|-----------------------------------|---------5------------2-4----2-4---|
A|-----------------------------------|------------------2H4--------------|
E|0----------------------------------|3---3------------------------------|
           We donít  wait till   tomorrow
               have to
                                      don't have   no    way    there!


           X     x  X   X    x X   X    x X X  x X X x  x X X x  X X X
  E                                                               G
e|-------- -------- -------- --------|-------- -------- -------- 15-\----|
B|-----------------------------------|---------------------------12-\----|
G|-----------------------------------|---------------------------12-\----|
D|-----------------------------------|-----------------------------------|
A|-----------------------------------|-----------------------------------|
E|0----------------------------------|-----------------------------------|

  E                                   Gadd9
e|-------3/4------3/4-----3- --2-----|-------- 5------- -------- --------|
B|-----------------------------------|---------3-------------------------|
G|-------3/4------3/4-----3----2-----|---------4-------------------------|
D|-----------------------------------|---------5------------2-4--4-2-4---|
A|-----------------------------------|----------------2/4----------------|
E|0----------------------------------|3---3------------------------------|
           We donít  wait till   tomorrow
               have to
                                    I don't       don't
                                        have no way,  have no way!


  E                                   Gadd9
e|----2/4- --0----7/9---7/9- ----7/9-|-------- 5-----5- -------- --------|
B|-----------------------------------|---------3-----3-------------------|
G|----2/4----1----7/9---7/9------7/9-|---------4-----4-------------------|
D|-----------------------------------|---------5-----5------2-4----2-4---|
A|-----------------------------------|------------------2H4--------------|
E|0----------------------------------|3---3------------------------------|
           We donít  wait till   tomorrow
               have to
                                         Don't have no  way, don't have no

  E                                   Gadd9
e|-------- 7/9--7-7/9-----7-/9---7---|-------- 5------- -------- --------|
B|-----------------------------------|---------3-------------------------|
G|---------7/9--7-7/9-----7-/9---7---|---------4-------------------------|
D|-----------------------------------|---------5--------------2--4P2-----|
A|-----------------------------------|------------------2H4-4--------4---|
E|0----------------------------------|3---3------------------------------|
           We donít  wait till   tomorrow
               have to                         Oh,   no!
  way

  X x x X  x x X x  x X x x  X x x X  x x X x  x X x x  X X X X  X X X

e|-------- -------- -------- --------|-------- -------- -------- --------|
B|-----------------------------------|-----------------------------------|
G|-----------------------------------|-----------------------------9-\---|
D|-----------------------------------|------------------9-9-9-9--9-9-\---|
A|-----------------------------------|-----------------11-911-9-11-------|
E|-----------------------------------|-----------------------------------|
                      I wonít be around           tomorrow,       Yeah!

  E                                   Gadd9
e|-------2/4-----x- 0---7/9- --7-----|-------- 5-----5- -------- --------|
B|-----------------------------------|---------3-----3-------------------|
G|-------2/4-----x--1---7/9----7-----|---------4-----4-------------------|
D|-----------------------------------|---------5-----5------2-4----x-6-\-|
A|-----------------------------------|------------------2/4--------------|
E|0----------------------------------|3---3------------------------------|
           We donít  wait till   tomorrow
               have to
                                               Don't
                                                 have no way, baby


  E                                   Gadd9
e|-------2/4---0--- 7/9---7-/9---x---|-------- 5---5-5- -------- --------|
B|-----------------------------------|---------3---3-3-------------------|
G|-------2/4---1----7/9---7-/9---x---|---------4---4-4-------------------|
D|-----------------------------------|---------5---5-5------2-4------2-4-|
A|-----------------------------------|------------------2-4------2-4-----|
E|0---0------------------------------|3---3------------------------------|
           We donít  wait till   tomorrow
               have to
                                                   Right!            right!
  .................................Fade..................................

                                                                       x
  E
e|-------2/4---0--- 7/9---7-/9\7-----|-------- -------- -------- --------|
B|-----------------------------------|-----------------------------------|
G|-------2/4---1----7/9---7-/9\7-----|-----------------------------------|
D|-----------------------------------|---------4-2------4-2------4-2-----|
A|-----------------------------------|-------------4-2------4-2------4-2-|
E|0---0------------------------------|3---3------------------------------|
           We donít  wait till   tomorrow
               have to
                                      Oh,      honey    meets a ...
  .......................................................................


  X x x      x X x  x     x  X x x    X   X    x     X    x x    X   X

e|-------- -------- -------- --------|-------- -------- 7---7--- 7-------|
B|-----------------------------------|------------------7---7H9--7-------|
G|-----------------------------------|-----------------------------9-6---|
D|-----------------------------------|-----------------------------------|
A|-----------------------------------|-----------------------------------|
E|-----------------------------------|-----------------------------------|
                                Look!     Hey!....               Ooow!
  .......................................................................


  E
e|-------2/4---0--- 7/9---7-/9---x---|-------- -------- -------- --------|
B|-----------------------------------|-----------------------------------|
G|-------2/4---1----7/9---7-/9---x---|-----------------------------------|
D|-----------------------------------|-----------------------------------|
A|-----------------------------------|-----------------------------------|
E|0---0------------------------------|-----------------------------------|
           We donít  wait till   tomorrow
               have to
  .........................................



        B  Bend
        R  Release
        /  Slide up
        \  Slide down
        H  Hammer-on
        P  Pull-off
        ~  Vibrato
        +  Harmonic
        x  Mute note
        .  Play note like a dot in standard notation
        ^  Ties two notes together
        (.  Pause
Related for Wait Until Tomorrow tab