Jimi Hendrix - Crosstown Traffic tab

                          Crosstown Traffic                                 


                                                              Jimi Hendrix
Guitar tuned down  step


Seen alot of tabs but none seemed to have the right chords in the verse.
I mixed together the 2 guitars in this tab to one so you can play it live with 
just 1 guitar, or at home. This is how I play it anyhow.
 I'm sure this is 99.99% correctly tabbed, but please comment and rate and rant etc :) 

Listen to the song to get the rhythm as it can be difficult to hear over the 
piano, and hard to tab correctly in txt.

Have fun


 
D#||---9-----9-----9------9-----9-----9--|----9------9-----------9----------|
A#||---9-----9-----9------9-----9-----9--|----9------9----9-----------------|
F#||--11b---11b---11b----11b---11b---11b-|---11b----11b-----11b----11p-9----|
C#||-------------------------------------|----------------------------------|
G#||-------------------------------------|----------------------------------|
D#||-------------------------------------|----------------------------------|


                     |--3--|                                 
 
------------------7-------------|---------------------------|
-----5--x----7/9-----9\-7p-5----|--7----5-------------------|
-----4--x--------------------6--|---------------------------|
--3--3--x-----------------------|-------------2h-3h4--2-----|
--4-----x-----------------------|----------4-------------4--|
--------------------------------|---------------------------|


                     |--3--|                                 

------------------7-------------|---------------------------|
--5--5--x----7/9-----9\-7p-5----|--7----5-------------------|
--4--4--x--------------------6--|---------------------------|
--3--3--x-----------------------|-------------2h-3h4--2-----|
--4--4--x-----------------------|----------4-------------4--|
--------------------------------|---------------------------|


                     |--3--|                                 
  
------------------7-------------|---------------------------|
--------5----7/9-----9\-7p-5----|--7----5-------------------|
-----4--4--------------------6--|---------------------------|
--3-----3-----------------------|-------------2h-3h4--2-----|
--4-----------------------------|----------4-------------4--|
--------------------------------|---------------------------|


 
--0-0--0-0--0-0--0-0--0-0----|-----------------------------|
--0-0--0-0--0-0--0-0--0-0--5-|--5--5-5---5-5--5-5--5-------|
--4-4--4-4--4-4--4-4--4-6----|--------------------------6--|
-----------------------------|-----------------------------|
-----------------------------|-----------------------------|
-----------------------------|-----------------------------|

You jump infront of my car...       
----------------------|----------------------|----------------------|
--5--5----------------|----------------------|--5--5----------------|
--4--4----------------|--3--3----------------|--4--4----------------|
--3--3----------------|--2--2----------------|--3--3----------------|
--4--4----------------|----------------------|--4--4----------------|
----------------------|--2--2----------------|----------------------|


       
----------------------|----------------------|----------------------|
----------------------|----------------------|--8--8----------------|
--3--3----------------|--7--7----------------|--7--7----------------|
--2--2----------------|--7--7----------------|--6--6----------------|
----------------------|----------------------|--7--7----------------|
--2--2----------------|--7--7----------------|--0--0----------------|


 
----------------------|-----------------------------|
----------------------|-----------------------------|
--6--6----------------|--5-5--5-5--5-5---5-5--5--5--|
--5--5----------------|--4-4--4-4--4-4---4-4--4--4--|
----------------------|-----------------------------|
--5--5----------------|--4-4--4-4--4-4---4-4--4--4--|


           You're just like crosstown traffic..
--7-7--7-7--7-7--7-7--7--7--|-----------------------------|
----------------------------|-----5--x--------------------|
----------------------------|-----4--x--------------------|
----------------------------|--3--3--x--------------------|
----------------------------|--4-----x-----2h-3h-4--2-----|
----------------------------|-----------4--------------4--|


 
-------------7-------------------|-----------------------------|
--------7/9-----9\-7p-5----7--5--|--5--5--x--------------------|
------------------------6--------|--4--4--x--------------------|
---------------------------------|--3--3--x--------------------|
---------------------------------|--4--4--x-----2h-3h-4--2-----|
--2--2---------------------------|-----------4--------------4--|


  E  E    E  E    E  E    E  E     E  E  E  E  S S E  E  E   
-------------7-------7-------7--|---------------------------|
--------7/9-----7/9-----7/9-----|-----5---------------------|
--------------------------------|-----4---------------------|
--------------------------------|--3--3---------------------|
--------------------------------|--4-----------2h3h4--2-----|
--2--2--------------------------|-----------4------------4--|


 
-------------7-------------------|--0--0--0--0--0--0--0--0--0--0----|
--------7/9-----9\-7p-5----7--5--|--0--0--0--0--0--0--0--0--0--0--5-|
------------------------6--------|--9-11--9-11--9-11--9-11--9-11----|
---------------------------------|----------------------------------|
---------------------------------|----------------------------------|
--2--2---------------------------|----------------------------------|


     
-----------------------------|----------------------|----------------------|
--5--5-5---5-5--5-5--5-------|--5--5----------------|----------------------|
--------------------------6--|--4--4----------------|--3--3----------------|
-----------------------------|--3--3----------------|--2--2----------------|
-----------------------------|--4--4----------------|----------------------|
-----------------------------|----------------------|--2--2----------------|


       
----------------------|----------------------|----------------------|
--5--5----------------|----------------------|----------------------|
--4--4----------------|--3--3----------------|--7--7----------------|
--3--3----------------|--2--2----------------|--7--7----------------|
--4--4----------------|----------------------|----------------------|
----------------------|--2--2----------------|--7--7----------------|

 
----------------------|----------------------|-----------------------------|
--8--8----------------|----------------------|--------------------------x--|
--7--7----------------|--6--6----------------|--5-5--5-5--5-5---5-5--5--x--|
--6--6----------------|--5--5----------------|--4-4--4-4--4-4---4-4--4--x--|
--7--7----------------|----------------------|--------------------------x--|
--0--0----------------|--5--5----------------|--4-4--4-4--4-4---4-4--4-----|



--7------7------7------7------7b--7b--|---------------------------|
----10b----10b----10b----10b----------|--5--5--x------------------|
--------------------------------------|--4--4--x------------------|
--------------------------------------|--3--3--x------------------|
--------------------------------------|--4--4--x-----2h3h4--2-----|
--------------------------------------|-----------4------------4--|


   
-------------7-------------------|-----------------------------|
--------7/9-----9\-7p-5----7--5--|--5--5--x--------------------|
------------------------6--------|--4--4--x--------------------|
---------------------------------|--3--3--x--------------------|
---------------------------------|--4--4--x-----2h-3h-4--2-----|
--2--2---------------------------|-----------4--------------4--|


-------------7-------7-------7--|-----------------------------|
--------7/9-----7/9-----7/9-----|--5--5--x--------------------|
--------------------------------|--4--4--x--------------------|
--------------------------------|--3--3--x--------------------|
--------------------------------|--4--4--x-----2h-3h-4--2-----|
--2--2--------------------------|-----------4--------------4--|


-------------7-------------------|----------------------------------|
--------7/9-----9\-7p-5----7--5--|----------------------------------|
------------------------6--------|----10----10----10-----10----9----|
---------------------------------|-----9-----9-----9------9----8----|
---------------------------------|----------------------------------|
--2--2---------------------------|--9--9--9--9--9--9---9--9--8-8--7-|


                               Solo start
------------------------------|-----------------------------|
------------------------------|------------7-----9--7-------|
--8----7-----7----6--6-5--5---|-------6/8--------------6\-4-|
--7----6-----6----5--5-4--4---|-----------------------------|
------------------------------|-----------------------------|
--7--6-6---6-6--5-5--5-4--4---|-----------------------------|


      
----------------------------|------------------------|
----------------------------|-------7b--7b-----------|
--------6b----6b----6p-4----|------------------------|
-----6-------------------6--|------------------------|
----------------------------|------------------------|
----------------------------|------------------------|


                                  Chorus
---------------------------------|-----------------------------|
--7b--7b--7----------------------|--5--5--x--------------------|
-------------6b--6b--6b--6p-4----|--4--4--x--------------------|
------------------------------6--|--3--3--x--------------------|
---------------------------------|--4--4--x-----2h-3h-4--2-----|
---------------------------------|-----------4--------------4--|


 
-----------------------------|--7-7--7-7--------------------|
--------x--------------------|------------5-5---5-5---------|
--3--3--x--------------------|-----------------------6-6--6-|
--2--2--x--------------------|------------------------------|
--------x-----2h-3h-4--2--4--|------------------------------|
--2--2-----4-----------------|------------------------------|


 
-----------------------------|-----------------------------|
-----------------------5--5--|--5--5--x--------------------|
--4--4-4---4-4--4-4--4-------|--4--4--x--------------------|
-----------------------------|--3--3--x--------------------|
-----------------------------|--4--4--x-----2h-3h-4--2-----|
-----------------------------|-----------4--------------4--|


     
--------------------------x--|--7-7--7-7--7-7b---7pb-7pb--7pb----|
--------x-----------------x--|-----------------------------------|
--3--3--x-----------------x--|-----------------------------------|
--2--2--x-----2h-3h-4-----x--|-----------------------------------|
--------x--4-----------2-----|-----------------------------------|
--2--2-----------------------|-----------------------------------|


-----------------------------|--------------------------x--|
--5--5--x--------------------|--------x-----------------x--|
--4--4--x--------------------|--3--3--x-----------------x--|
--3--3--x--------------------|--2--2--x-----2h-3h-4-----x--|
--4--4--x-----2h-3h-4--2-----|--------x--4-----------2-----|
-----------4--------------4--|--2--2-----------------------|



--------------------------------------|------------------------------------|
--9----9------9-------9------9------9-|-----9--------12--------------------|
---11b----11b----11b-----11b----11b---|--11b----11b------11p-9------11--9--|
--------------------------------------|------------------------11----------|
--------------------------------------|------------------------------------|
--------------------------------------|------------------------------------|



-----------------------------|-----------------------------|
--5--5--x--------------------|--------x--------------------|
--4--4--x--------------------|--3--3--x--------------------|
--3--3--x--------------------|--2--2--x-----2h-3h-4--------|
--4--4--x-----2h-3h-4--2-----|--------x--4-----------2-----|
-----------4--------------4--|--2--2--------------------4--|


   
--7-7--7-7--7-7---7-7--7-7--7-|--7--7-7-7-7-7--7b--7b--7b--7b--|
------------------------------|--------------------------------|
------------------------------|--------------------------------|
------------------------------|--------------------------------|
------------------------------|--------------------------------|
------------------------------|--------------------------------|

starts fading here
--7b----7b-----7--------------|------------------------------------|
------------9-------12b--12b--|--12b--12-------12------------------|
------------------------------|-----------11b------11b--11--9--11--|
------------------------------|------------------------------------|
------------------------------|------------------------------------|
------------------------------|------------------------------------|

      
----------------------------------|-------------|-----||
----------------------------------|--5--5--x----|-----||
--9g11----9--------------------9--|--4--4--x----|-----||
---------------11p-9-----9g11-----|--3--3--x----|-----||
---------------------11-----------|--4--4--x----|-----||
----------------------------------|-------------|-----||





Tablature Legend
----------------
L - tied note
x - dead note
g - grace note
(n) - ghost note
> - accentuded note
NH - natural harmonic
AH - artificial harmonic
TH - tapped harmonic
SH - semi harmonic
PH - pitch harmonic
h - hammer on
p - pull off
b - bend
br - bendRelease
pb - preBend
pbr - preBendRelease
brb - bendReleaseBend
\n/ - tremolo bar dip
\n - tremolo bar dive
-/n - tremolo bar Release up
/n\ - tremolo bar inverted dip
/n - tremolo bar return
-\n - tremolo bar Release down
S - shift slide
s - legato slide
/ -  slide into from below or out of upwards
\ -  slide into from above or out of downwards
~ - vibrato
W - wide vibrato
tr - trill
TP - tremolo picking
T - tapping
S - slap
P - pop
< - fade in
^ - brush up
v - brush down
Tap to rate this tab
 
# A B C D E F G H I J K L M N O P Q R S T U V W X Y Z