Song name
# A B C D E F G H I J K L M N O P Q R S T U V W X Y Z

Jimi Hendrix - Electric Ladyland tab

Hey this is the first 50 seconds or so to the studio outtake of the song electric 
ladyland.  TUNING IS DROPPED DOWN A HALF STEP FROM STANDARD (Eb)

e ---5---5-5---4h7p4-------7h9p7--------------------------------------|
B ---5---5-5---------------------7------------------------------------|
G ---6---6-6--------6------------8---------11----11\------------------|
D ---7---7-7----------4/6------------------11h13-11\------------------|
A ---7---7-7--4---------------------/11-14----------------------------|
E ---5---5-7----------------------------------------------------------|

e -------5--5---5-X----4h7p4--------------0h5p0-----------------------|
B -------5--5---5-X---------------------------------------------------|
G -------6--6---6-X---------6-------------------7-----7h9p7-----------|
D -----------------------------------7h9-----------7/9------9---------|
A ------------5------4-----------7h9----------------------------------|
E ---5-5----------------------/7-----------------0---------0----------|

e ------5-5----4h7p4-----------------5/7\5/7\5------------------------|
B ------5-5----------------7/9\7-----3/5\3/5\3------------------------|
G ------6-6----------------6/8\6--------------------------------------|
D ------7-7----------------6/8\6-----5/7\5/7\5------------------------|
A ------7-7--4-------4\-----------------------------------------------|
E ---5--5-5-------------4--------4-3-----------3----------------------|

e ------5-X---4h7p4-------5/7\5---------------------------------------|
B ------5-X---------------3/5\3---------------------------------------|
G ------6-X---------6----------------7h9p7----------------------------|
D --------------------4---5/7\5------7-----7h9------------------------|
A ---5------4-----------2----------------------7/9--------------------|
E---------------------------------3-----------------------------------|

e ---10-9-7---------------------5-----5--5---------0h5p0--------------|
B ---10-9-7---------------------3-----3--3----------------------------|
G -------------------------------------------------------7------------|
D ------------------------------5---5----5----------------------------|
A ------------------------------------------/5-7----------------------|
E ----------7-5-4-3-1-3-1-3-3--------------------0---------0----------|

e ------------------------------------10-9-7--------------------------|
B ------------------------------------10-9-7--------------------------|
G ------------------------/7-4--7-------------------------------------|
D --------------7---------------7-------------------------------------|
A --------------7h9p7--------------5----------------------------------|
E ---5-7--5-7-5--------0-----------5---------7-5-4-3-1-3-1-3-3--------|

Alright that's about it...here are a few tips:

1. This is almost just as easy to play in standard tuning if you just play it a half 
step down, you just got leave out some of the open E hits that Jimi does.

2. This may seem obvious, but make sure you have the recording ready while learning, 
it's a hard one to get down

3. Hendrix does the hammer ons and pull offs at all different speeds; you'll have to 
listen to figure it out.  Sorry there's just no way for me to show that in the tab

4. Some of the multiple-string slides look daunting, but they're really not that bad.  
If you've ever learned the intro to little wing or castles made of sand, he uses the same 
technique in those.

Okay that's about it, if anyone has questions just ask them in the comments. Also, if 
anyone requests it I'll finish the song, otherwise,  thanks for viewing!
-Pat
Tap to rate this tab
# A B C D E F G H I J K L M N O P Q R S T U V W X Y Z