Song name
# A B C D E F G H I J K L M N O P Q R S T U V W X Y Z

Jimi Hendrix - Hear My Train A Comin tab

Artist: Jimi Hendrix
Song: Hear My Train A-Comin' (Studio Version)
Album: 1975-Midnight Lightning, 2010-Valleys of Neptune 
(Various releases made, Valleys of Neptune version shown)

May not be perfect, this is my first tab. This isn't the full thing,
just about the first 40 seconds. anthraxhd@yahoo.com

Tuning: Eb (EbAbDbGbBbEb)

Notation:
h- hammer-on
p- pull-off
b- bend
x- mute, dont play
...- continue with pattern
()- optional
~- vibrato/let ring
/- slide up to (if there's no numer/fret, determine by ear)
\- slide down to (^^same applys)
w- whammy bend

e|0~------------|-------------------------------------------------------------|
B|0~------------|-------------------------------------------------------------|
G|x-------------|--7h9p7h9-----7h9p7h9----7-----------------------------------|
D|0h2p0h2p0...--|----------------------------5h6b~-------/5---/5---0----------|
A|(0)-----------|----------------------------------7-----------------0--------| 
E|(0)-----------|-----------0---------0---------------0----0-----------3b--0--|

e|-----------------------------------------------------------------|
B|-----------------------------------------------------------------|
G|--7h9p7h9-----7h9p7h9----7---------------------------------------|
D|----------------------------5h6b~-------/5~---/5---0-------------|
A|----------------------------------7-------------------x----------| 
E|-----------0---------0---------------0----0-----------0--/x(18)--|
                                                          (^muffled slide)

e|---(0)----(0)-------------------------(0)-----(0)----------------------|
B|---(0)----(0)-------------------------(0)-----(0)----------------------|
G|----9------7------7--------------------9-------7--------7--------------|
D|------7h9-----7b~----5b~------------------7h9------7b~-----5b~---------|
A|--------------------------5h7p5h7-------------------------------/7-----| 
E|-0---------------------------------(0)---------------------------------|


e|------(0)----(0)---------------------(0)-----(0)------------------------|
B|------(0)----(0)---------------------(0)-----(0)------------------------|
G|-------9------7------7----------------9-------7--------7----------------|
D|---------7h9-----7b~----5b~--------------7h9------7b~-----5b~-----------|
A|-----------------------------5h7-------------------------------5h7p5----| 
E|(0)-------------------------------(0)-----------------------------------|


e|----------------------------------------------------(0h4)--------------------0-|
B|-----------------------------------------(0)-----------------------------------|
G|--9------------9-7b-9~----9--------9-7w~---------------------------------------|
D|-------------------------------------7w~------0h2p0h2-------0-2-0-2------0h2---|
A|-----5h7p5h7-----------------5h7-----7w~------------------2--------------------| 
E|---------------------------(0)--------------------------------------0-3b-0-----|


Well I'll, wait around the train station, waitin' for that train.....
Tap to rate this tab
 
# A B C D E F G H I J K L M N O P Q R S T U V W X Y Z