Song name
# A B C D E F G H I J K L M N O P Q R S T U V W X Y Z

Jimi Hendrix - Lullaby For The Summer tab

Jimi Hendrix- Lullaby For The Summer
Tabbed By:John-Lennon
Tuning:Standard
Intro/Riff
E-----------------|
B-----------------|
G-4-6-7-7\--------|  play 4x
D-----------------|
A-2-4-5-9\-9-7-5-7|
E----------7-5-3-5|

E-------------------------------|
B-------------------------------|
G-12-12-12-12-10-10-10-10-9-7-9r|
D-------------------------------|
A-------------------------------|
E-------------------------------|

E-------------------------------------------|
B--------------------12-15-12-15B-12--------|
G----12-14-14B-12R-14---------------14-12---|
D-/14------------------------------------14R|
A-------------------------------------------|
E-------------------------------------------|

E-------|
B-------|
G-7-11-9|
D-------| listen to the song to get the rythem for this section 
A-5-9--7|
E-------|

For the solo just improvise cause its fun.
then after that go back to the riff 
Its a simple but fun song to play off the Valleys Of Neptune album listen to the 
song to get the feel and have fun!
Tap to rate this tab
# A B C D E F G H I J K L M N O P Q R S T U V W X Y Z