Song name
# A B C D E F G H I J K L M N O P Q R S T U V W X Y Z

Jimi Hendrix - Three Little Bears tab

Intro:
(I'm not going to bother transcribing the muted part. If you listen
to it you should be able to figure the rhythm out for yourself.)

------------------------------------------------------------|
-5--x-5-5-6-5-x-3~-x-3-3----x----x--5-5-6-5-x-3~-x-3-3----x-|
-5--x---------x----x----5-4-x-5~-x----------x----x----5-4-x-|
-5--x---------x----x--------x----x----------x----x--------x-|
-3--x---------x----x--------x----x----------x----x--------x-|
------------------------------------------------------------|

------3-3-5-3---1~---1-1------------|
-5-x--5-5-6-5-x-3~-x-3-3-5-4-x-5~-x-|
-5-x----------x----x-----5-4-x-5~-x-|
---x----------x----x---------x----x-|
---x----------x----x---------x----x-|
------------------------------------|

intro lead:
-----------------------------------------------8-----------------------------|
-10(12)~-10(12)10(12)(12)---------------------8-8----------------8-----------|
--------------------------7(9)----7p5---10(12)----10(12)10-10(12)--8---------|
-------------------------------9------7-----------------------------10-8-10~-|
-----------------------------------------------------------------------------|
-----------------------------------------------------------------------------|

over this progression which repeats throughout 1st verse:
   C         F         Dm        G
-----------x-1-1-x-1-----------x-3-3-x-3-|
-x-5-5-x-5-x-1-1-x-1-x-6-6-x-6-x-3-3-x-3-|
-x-5-5-x-5-x-2-2-x-2-x-7-7-x-7-x-4-4-x-4-|
-x-5-5-x-5-x-3-3-x-3-x-7-7-x-7-x-5-5-x-5-|
-x-3-3-x-3-x-3-3-x-3-x-5-5-x-5-x-5-5-x-5-|
-----------x-1-1-x-1-----------x-3-3-x-3-|

   C         Dm        F         G
-----------x-----x---x-1-1-x-1-x-3-3-x-3-|
-x-5-5-x-5-x-6-6-x-6-x-1-1-x-1-x-3-3-x-3-|
-x-5-5-x-5-x-7-7-x-7-x-2-2-x-2-x-4-4-x-4-|
-x-5-5-x-5-x-7-7-x-7-x-3-3-x-3-x-5-5-x-5-|
-x-3-3-x-3-x-5-5-x-5-x-3-3-x-3-x-5-5-x-5-|
-----------x-----x---x-1-1-x-1-x-3-3-x-3-|

"And you know they all lived..."
----------------------------|
----10~------8~---7~---6~---|
----------------------------|
-/10----10-8---8-7--7-6---6-|
----------------------------|
----------------------------|

1st verse only
-----------------------------------------------|
-----------------------------------------------|
----5-----------------------7------------------|
----5--7p5-----3------------7-9p7------5-------|
-/7--------7---3---5p3---/9-------9----5-7p5---|
-------------/5--------5-------------/7------7-|

--------------------------------------------------|
--------------------------------------------------|
----5------------7----10--------------12----------|
----5--7p5-------7----10-12p10--------12-14p12----|
-/7--------7--/9---/12---------12--/14---------14-|
--------------------------------------------------|

second verse

------------------------------------------------------------|
-5--x-5-5-6-5-x-3~-x-3-3----x----x--5-5-6-5-x-3~-x-3-3----x-|
-5--x---------x----x----5-4-x-5~-x----------x----x----5-4-x-|
-5--x---------x----x--------x----x----------x----x--------x-|
-3--x---------x----x--------x----x----------x----x--------x-|
------------------------------------------------------------|

(move up whole step)
------5-5-7-5---3~---3-3------------|
-7-x--7-7-8-7-x-5~-x-5-5-7-6-x-7~-x-|
-7-x----------x----x-----7-6-x-7~-x-|
---x----------x----x---------x----x-|
---x----------x----x---------x----x-|
------------------------------------|

Solo over D G A9 G:
----------13(15)----13(15)~-15(17)15(18)-(17)15--------|
-------10-------10------------------------------15-----|
-12(14)-----------12-------------------------------14~-|
-------------------------------------------------------|
-------------------------------------------------------|
-------------------------------------------------------|

-(17)(17)15(17)15(17)-15-------15(17)-(17)-13p10----------10-------------|
-------------------------15-15~-----------------13------10--13-----------|
--------------------------------------------------12(14)---------10(11)~-|
---------------------------------------------------------------12--------|
-------------------------------------------------------------------------|
-------------------------------------------------------------------------|

-----------------------------------------------|
-----------------------------------------------|
---10(12)10------------------------------------|
-12--------12---3(4)-3(4)-3(4)-3(4)------------|
---------------5--------------------5-3---3-5~-|
----------------------------------------5------|

Third verse
chords:D G Em A9, D Em G A9

"I sure don't wanna live without you.."
  G               F       E       Eb      D
e-13(15)-13(15)~--13-13~--12-12~--11-11~--10-

-------------------------------------|
-------------------------------------|
----7------------------9-------------|
----7--9p7-----5-5-----9-11p9----7-7-|
-/9--------9---5-5--/11----------7-7-|
-------------/7-7--------------/9-9--|

---------------------------------------|
---------------------------------------|
----7--7-----9--9-----12--12----14--14-|
----7--7-----9--9-----12--12----14--14-|
-/9--9----/11-11---/14--14----/16-16---|
---------------------------------------|

Fourth verse

  G               F       E       Eb
e-13(15)-13(15)~--13-13~--12-12~--11-11~-----

  G               F       E       Eb
e-13(15)-13(15)~--13-13~--12-12~--11-11~-10-------------|
b-------------------------------------------13(15)13-10-|

  G              F       E       Eb
e------------------------10-10~--13(15)13~-|
b------------------------------------------|
g-12(14)-12(14)~-12-12~--------------------|

  G                         F                 E       Eb
e-10------10------------------------10-----15(17)---18(20)~-|
b---13(15)---13p10----------------10--13p10-----------------|
g-----------------12p10-----12(14)--------------------------|
d-----------------------12----------------------------------|


sing along with this part
------------------------------------------------------------|
-7--x-7-7-8-7-x-5~-x-5-5----x----x--7-7-8-7-x-5~-x-5-5----x-|
-7--x---------x----x----7-6-x-7~-x----------x----x----7-6-x-|
-7--x---------x----x--------x----x----------x----x--------x-|
-5--x---------x----x--------x----x----------x----x--------x-|
------------------------------------------------------------|

------5-5-7-5------------------------|
-7-x--7-7-8-7-x-8~-x-8-8--7-6-x-7~-x-|
-7-x----------x-9~-x-9-9--7-6-x-7~-x-|
---x----------x----x----------x----x-|
---x----------x----x----------x----x-|
-------------------------------------|

Outro:

------------------------------------------------------------|
------------------------------------------------10-13(15)~--|
-12(14)-12-(14)-10~--12(14)-10---10(12)~---10-12------------|
-------------------------------12--------12-----------------|
------------------------------------------------------------|
------------------------------------------------------------|

----------------10-13(15)~-13-10-13-15(17)----------------------------------------|
-13-10-------10---------------------------10h13p10--------------------------------|
-------12(14)-------------------------------------12-12(14)-----------------------|
----------------------------------------------------------------------------------|
----------------------------------------------------------------------------------|
----------------------------------------------------------------------------------|

-------------------------------------------------13(15)13-10h13p10---|
-------------10-13(15)-13(15)~-13---------------------------------13-|
-10----10(12)------------------12(14)12-10-12-10---------------------|
----12---------------------------------------------------------------|
---------------------------------------------------------------------|
---------------------------------------------------------------------|

-------------------------------------13-15(17)-15(17)~-|
-(15)13-10-12---------------10-13-/15------------------|
-----------12-10(11)~-12(14)---------------------------|
-------------------------------------------------------|
-------------------------------------------------------|
-------------------------------------------------------|
repeat & fade
-15(17)15-13-15(17)(17)(17)-------------|
----------------------------------------|
----------------------------------------|
----------------------------------------|
----------------------------------------|
----------------------------------------|


Lyrics:

"Ha Ha Ha", says Mama Bear as she irons Daddy's holey underwear
and "Hee Hee Hee", says Daddy bear as Junior pours honey all on sister hair
Anyway you know they live happily ever after

Well, "Ho ho ho" say the little fish
as the sad fisherman goes home without a hitch
But "Hee hee hee" says the fisherman
with his lady burning french fries in the frying pan
(This is so silly man)

"Hee hee hee" says you to me
(Man I don't feel like going through with this, this is really silly)
Oh man, I wanna die
'cause walking around on the ground is really cramping my high
I sure don't wanna live without you forever after, no.

Now what does all this have to do with the three little bears?
Well, I was just feeling blue, 'cause I really care
That you're still gone from me and I'm as sad as I can be
So I'll sing and play this tune until you come back home to me
Tap to rate this tab
 
# A B C D E F G H I J K L M N O P Q R S T U V W X Y Z