Song name
# A B C D E F G H I J K L M N O P Q R S T U V W X Y Z

Jimi Hendrix - Gypsy Eyes tab

 Jimi Hendrix - Gypsy Eyes Tab

Gypsy eyes

From: Dave Curtis sonicboombox@yahoo.com


Key:
x Pick scrape
Slide up
/ Slide down
b Bend string
d Downstroke
u Upstroke
v Vibrate/Tremolo


e-------x---x---------------------------|
B-------5px-5px-------------------------|
G-x-----5px-5px-----x--x-x-x-x-x-x--x---|
D-x-----7p5-7p5-----7--x-x-x-x-x-x--x---|
A-x-----x---x-------x--x-x-x-x-x-x--x---|
E-------x---x---8b9----x-x-x-x-x-x------|
d u d u d u

e-------x---x----------------------------|
B-------5px-5px---------------------5b6v-|
G-x-----5px-5px-----x--x-x-x-x-x-x--5b6v-|
D-x-----7p5-7p5-----7--x-x-x-x-x-x-------|
A-x-----x---x-------x--x-x-x-x-x-x-------|
E-------x---x---8b9----x-x-x-x-x-x-------|
d u d u d u

e-------x---x-----------------------------|
B-------5px-5px---------------------5-----|
G-x-----5px-5px-----x--x-x-x-x-x-x--7b8p5-|
D-x-----7p5-7p5-----7--x-x-x-x-x-x--------|
A-x-----x---x-------x--x-x-x-x-x-x--------|
E-------x---x---8b9----x-x-x-x-x-x--------|
d u d u d u

e---------------|
B---------------|
G---------------|
D-7p5h7p5h7p5h7-
A---------------|
E---------------| NOTE: Do this hammer on pull off bit for as long
---- as its on the album.

Its impossible to say how many time he does it.
But fill the gap till it gets to the singing.


e----------------------------------------|
B-/5---8-8b10-8-8b10-8---5---------------|
G-----------------------------5----7-5-7-|
D----------------------------------------|
A----------------------------------------|
E----------------------------------------|
Well I re___a_lise that Ive been hypnotized

e--------------------------------------------|
B------------8-------------------------------|
G---5----7-----7b9-7p5-----------------------|
D-7--------------------7-5h7p5h7p5h7p5h7p5h7-|
A--------------------------------------------|
E--------------------------------------------|
I love you gypsy eyes

e--------------------------------------------|
B------------8-------------------------------|
G---5----7-----7b9-7p5-----------------------|
D-7--------------------7-5h7p5h7p5h7p5h7p5h7-|
A--------------------------------------------|
E--------------------------------------------|
I love you gypsy eyes Alright


e-x--------------------------------|
B-x---5b6--------------------------|
G-x---5b6--------------------------|
D-5h7-----7p5-7p5----5h7p5-7p5-----|
A-x--------------------------------|
E-x---------------8b9----------8b9-|

e-x--------------------------------|
B-x---5b6--------------------------|
G-x---5b6--------------------------|
D-5h7-----7p5-7p5----5h7p5-7p5-----|
A-x--------------------------------|
E-x---------------8b9----------8b9-|

e-x--------------------------------|
B-x---5b6--------------------------|
G-x---5b6--------------------------|
D-5h7-----7p5-7p5----5h7p5-7p5-----|
A-x--------------------------------|
E-x---------------8b9----------8b9-|

e-x---------------12-12-12-12-12-12-|
B-x---5b6---------13-13-13-13-13-13-|
G-x---5b6---------12-12-12-12-------|
D-5h7-----7p5-7p5-------------------|
A-x---------------------------------|
E-x---------------------------------|
d u d u d u

e-------------------------------|
B---------------------------7b9-|
G---------------------------7b9-|
D-------------------------------|
A-----5-7-7------5-7-7----------|
E-3-5--------3-5--------3-5-----|
Gypsy

e-------------------------------12-12-12-12-12-12-|
B---------------------------7b9-13-13-13-13-13-13-|
G---------------------------7b9-12-12-12-12-------|
D-------------------------------------------------|
A-----5-7-7------5-7-7----------------------------|
E-3-5--------3-5--------3-5-----------------------|
d u d u d u

e--------------------------------------------|
B-5-5-5--5-5--7-7-7b9-7-7-5--5--8b10-5-------|
G-5-5-5--5-5--7-7-7b9-7-7-5--5---------7-5---|
D----------------------------7-------------5-|
A--------------------------------------------|
E-5-5-5--5-5--5-5-5---5-5-5--5---------------|
d d d d u d u d u d u d

Way up in my tree Im sitting by my fire

e----------------------------------------------------|
B-5-5-5--5-5--7-7-7b9-7-7-5--5-----------------------|
G-5-5-5--5-5--7-7-7b9-7-7-5--5----5-7b9------5-7b9---|
D----------------------------7--7-------7--7-------7-|
A----------------------------------------------------|
E-5-5-5--5-5--5-5-5---5-5-5--5-----------------------|
d d d d u d u d u d u d

Wondering where in this world might you be

e----------------------------------------------|
B-5-5-5--5-5--7-7-7b9-7-7-5--5-5-5-5-5-5-5-5-5-|
G-5-5-5--5-5--7-7-7b9-7-7-5--5-5-5-5-5-5-5-5-5-|
D----------------------------7-7-7-7-7-7-7-7-7-|
A----------------------------------------------|
E-5-5-5--5-5--5-5-5---5-5-5--5-5-5-5-5-5-5-5-5-|
d d d d u d u d u d u d d u d d u u d d

And knowin that all this time youre still roamin the countryside

e------------------------------8---8-8-8--------|
B--8---------------------------8---8-8-8--------|
G-----9---7-----5-------7---5--7b9~~~~~~--5h7p5-|
D--------------------7--------------------------|
A-----------------------------------------------|
E-----------------------------------------------|
Do you still think a_bout me

e-------------------------------|
B---------------------------7b9-|
G---------------------------7b9-|
D-------------------------------|
A-----5-7-7------5-7-7----------|
E-3-5--------3-5--------3-5-----|
Gypsy

e-------------------------------12-12-12-12-12-12-|
B---------------------------7b9-13-13-13-13-13-13-|
G---------------------------7b9-12-12-12-12-------|
D-------------------------------------------------|
A-----5-7-7------5-7-7----------------------------|
E-3-5--------3-5--------3-5-----------------------|
d u d u d u

e-------------------------------15b17-15b17-15b17-12-15-17-|
B-5-5-5--5-5--7-7-7b9-7-7-5--5-----------------------------|
G-5-5-5--5-5--7-7-7b9-7-7-5--5-----------------------------|
D----------------------------7-----------------------------|
A----------------------------------------------------------|
E-5-5-5--5-5--5-5-5---5-5-5--5-----------------------------|
d d d d u d u d u d u d

Well I walked right up to your rebel roadside

e-------------------------------15----------|
B-5-5-5--5-5--7-7-7b9-7-7-5--5--15b-p13-----|
G-5-5-5--5-5--7-7-7b9-7-7-5--5----------14--|
D----------------------------7--------------|
A-------------------------------------------|
E-5-5-5--5-5--5-5-5---5-5-5--5--------------|
d d d d u d u d u d u d

The one that rambles on for a million miles

e-----------------------------------------------------|
B-5-5-5--5-5--7-7-7b9-7-7-5--5--15b17-13----13b15-----|
G-5-5-5--5-5--7-7-7b9-7-7-5--5-----------14-------14--|
D----------------------------7------------------------|
A-----------------------------------------------------|
E-5-5-5--5-5--5-5-5---5-5-5--5------------------------|
d d d d u d u d u d u d

Well I walked down that road searchin for your love and my soul too

e---------------------------------|
B--------8------------------------|
G------------9-7--5---------7---5-|
D----------------------7----------|
A---------------------------------|
E---------------------------------|
When I find ya I aint gonna let go

e----------------|
B-----------8b10-|
G-7b9-7p5--------|
D---------7------|
A----------------|
E----------------|

e--------------------------------------|
B-5-5-5-5-5-5-5-5-5--5-5-5-5-5-5-5-5-5-|
G-5-5-5-5-5-5-5-5-5--5-5-5-5-5-5-5-5-5-|
D-7-5-7-5-7-7-5-7-5--7-5-7-5-7-7-5-7-5-|
A--------------------------------------|
E-5-5-5-5-5-5-5-5-5--5-5-5-5-5-5-5-5-5-|
I remember the first time I saw you

e--------------------------------------|
B-5-5-5-5-5-5-5-5-5--5-5-5-5-5-5-5-5-5-|
G-5-5-5-5-5-5-5-5-5--5-5-5-5-5-5-5-5-5-|
D-7-5-7-5-7-7-5-7-5--7-5-7-5-7-7-5-7-5-|
A--------------------------------------|
E-5-5-5-5-5-5-5-5-5--5-5-5-5-5-5-5-5-5-|
The tears in your eyes like youre tryin to say

e--------------------------------------|
B-5-5-5-5-5-5-5-5-5--5-5-5-5-5-5-5-5-5-|
G-5-5-5-5-5-5-5-5-5--5-5-5-5-5-5-5-5-5-|
D-7-5-7-5-7-7-5-7-5--7-5-7-5-7-7-5-7-5-|
A--------------------------------------|
E-5-5-5-5-5-5-5-5-5--5-5-5-5-5-5-5-5-5-|
Oh little boy you know I could love you

e--------------------------------------|
B-5-5-5-5-5-5-5-5-5--5-5-5-5-5-5-5-5-5-|
G-5-5-5-5-5-5-5-5-5--5-5-5-5-5-5-5-5-5-|
D-7-5-7-5-7-7-5-7-5--7-5-7-5-7-7-5-7-5-|
A--------------------------------------|
E-5-5-5-5-5-5-5-5-5--5-5-5-5-5-5-5-5-5-|
But first I must make my getaway

e--------------------------------------|
B-5-5-5-5-5-5-5-5-5--5-5-5-5-5-5-5-5-5-|
G-5-5-5-5-5-5-5-5-5--5-5-5-5-5-5-5-5-5-|
D-7-5-7-5-7-7-5-7-5--7-5-7-5-7-7-5-7-5-|
A--------------------------------------|
E-5-5-5-5-5-5-5-5-5--5-5-5-5-5-5-5-5-5-|
Two strange men fighting to the death over me today

e--------------------------------------|
B-5-5-5-5-5-5-5-5-5--5-5-5-5-5-5-5-5-5-|
G-5-5-5-5-5-5-5-5-5--5-5-5-5-5-5-5-5-5-|
D-7-5-7-5-7-7-5-7-5--7-5-7-5-7-7-5-7-5-|
A--------------------------------------|
E-5-5-5-5-5-5-5-5-5--5-5-5-5-5-5-5-5-5-|
Ill try and meet you over by the old highway

e-10b12-10b12-10b12-10b12-10-10p8----------------------------------|
B----------------------------------13b15-13b15-13b15-13b15-13-8-10-|
G------------------------------------------------------------------|
D------------------------------------------------------------------|
A------------------------------------------------------------------|
E------------------------------------------------------------------|

e-8-5------------|
B-----8-5--------|
G---------7-5----|
D-------------h7-|
A----------------|
E----------------|

e-------x---x-------------------------|
B-------5px-5px-----------------------|
G-x-----5px-5px-----x--x-x-x-x-x-x--x-|
D-x-----7p5-7p5-----7--x-x-x-x-x-x--x-|
A-x-----x---x-------x--x-x-x-x-x-x--x-|
E-------x---x---8b9----x-x-x-x-x-x----|
d u d u d u

e--------x---x---------------------------|
B-------5px-5px---------------------5b6v-|
G-x-----5px-5px-----x--x-x-x-x-x-x--5b6v-|
D-x-----7p5-7p5-----7--x-x-x-x-x-x-------|
A-x-----x---x-------x--x-x-x-x-x-x-------|
E-------x---x---8b9----x-x-x-x-x-x-------|
d u d u d u

e-------x---x-----------------------------|
B-------5px-5px---------------------5-----|
G-x-----5px-5px-----x--x-x-x-x-x-x--7b8p5-|
D-x-----7p5-7p5-----7--x-x-x-x-x-x--------|
A-x-----x---x-------x--x-x-x-x-x-x--------|
E-------x---x---8b9----x-x-x-x-x-x--------|
d u d u d u

e---------------|
B---------------|
G---------------|
D-7p5h7p5h7p5h7-
A---------------|
E---------------|

e----------------------------------------|
B-/5---8-8b10-8-8b10-8---5---------------|
G-----------------------------5----7-5-7-|
D----------------------------------------|
A----------------------------------------|
E----------------------------------------|
Well I re___a_lise that Ive been hypnotized

e--------------------------------------------|
B------------8-------------------------------|
G---5----7-----7b9-7p5-----------------------|
D-7--------------------7-5h7p5h7p5h7p5h7p5h7-|
A--------------------------------------------|
E--------------------------------------------|
I love you gypsy eyes

e--------------------------------------------|
B------------8-------------------------------|
G---5----7-----7b9-7p5-----------------------|
D-7--------------------7-5h7p5h7p5h7p5h7p5h7-|
A--------------------------------------------|
E--------------------------------------------|
I love you gypsy eyes

e--------------------------------------|
B--------------------------------------|
G--------5-------5---------------------|
D-5-7--------5h7---5h7p5h7p5h7p5h7p5h7-|
A--------------------------------------|
E--------------------------------------|
I love you gypsy eyes

e-------------------------------------------|
B-------------------------------------------|
G---------5--7b9-7b9-7b9-7p5--------------x-|
D-5h7------------------------7vvvvvvvvvvv-x-|
A-----------------------------------------x-|
E-------------------------------------------|
I love you gypsy eyes Alright

e-x--------------------------------|
B-x---5b6--------------------------|
G-x---5b6--------------------------|
D-5h7-----7p5-7p5----5h7p5-7p5-----|
A-x--------------------------------|
E-x---------------8b9----------8b9-|

e-x--------------------------------|
B-x---5b6--------------------------|
G-x---5b6--------------------------|
D-5h7-----7p5-7p5----5h7p5-7p5-----|
A-x--------------------------------|
E-x---------------8b9----------8b9-|

e-x--------------------------------|
B-x---5b6--------------------------|
G-x---5b6--------------------------|
D-5h7-----7p5-7p5----5h7p5-7p5-----|
A-x--------------------------------|
E-x---------------8b9----------8b9-|

e-x---------------15----15----15-15-15----15-15-15-15----------15-------15-|
B-x---5b6---------15b17-15b17-15-15-15b17~~~~~~~~~-15b17-15b17----15b17----|
G-x---5b6------------------------------------------------------------------|
D-5h7-----7p5-7p5----------------------------------------------------------|
A-x------------------------------------------------------------------------|
E-x------------------------------------------------------------------------|

e-------15-------15-------|
B-15b17----15b17----13----|
G----------------------14-|
D-------------------------|
A-------------------------|
E-------------------------|

e-------------------------------------------------|
B-------------------------------------9-12b13-9---|
G-------------------------------------------------|
D---------------------------5---------------------|
A-----5-7------5-7------3-----5b6-5-3-------------|
E-3-5------3-5------3-5---5-----------------------|
Ive been searchin so long my feet they think they lose a battle

e---------------------------------------------------------|
B-------------------------------------12b13-12b13-9-12b13-|
G---------------------------------------------------------|
D---------------------------5-----------------------------|
A-----5-7------5-7------3-----5b6-5-3---------------------|
E-3-5------3-5------3-5---5-------------------------------|
Down against the road my worried knees take their place

e-----------------------------------------------------9b10-|
B----------------------------------------------------------|
G----------------------------------------------------------|
D---------------------------5------------------------------|
A-----5-7------5-7------3-----5b6-5-3----------------------|
E-3-5------3-5------3-5---5-----------10b11-9-10b11-9------|
Off to the side I fall but I hear a sweet call

e-------------------------------------|
B-------------------------------------|
G-------------------------------------|
D---------------------------5---------|
A-----5-7------5-7------3-----5b6-5-3-|
E-3-5------3-5------3-5---5-----------|
My gypsy eyes has found me and Ive been saved

e------9b11-9b11----9-----------------------|
B-9-12-----------12---9-12b13-12p11p10p9-12-|
G-------------------------------------------|
D-------------------------------------------|
A-------------------------------------------|
E-------------------------------------------|

e-------------------12b14-12b14-11-9-----------|
B------------------------------------12b14-9---|
G----------------------------------------------|
D----------------------------------------------|
A----------------------------------------------|
E----------------------------------------------|
Oh Ive been saved

e-------------------14b16-14b16-11-------------------------------|
B----------------------------------9-12-14-14b16-12h14p12-9-12-9-|
G----------------------------------------------------------------|
D----------------------------------------------------------------|
A----------------------------------------------------------------|
E----------------------------------------------------------------|
Thats why I love you

e-----------------------5-8-5---9-8-----5-8-5-----5-8-7-----5-8-5-----5-8-5-|
B-------------------5-8-------5-----5-8-------5-8-------5-8-------5-8-------|
G---------------7b9---------------------------------------------------------|
D---------------------------------------------------------------------------|
A---------------------------------------------------------------------------|
E---------------------------------------------------------------------------|
Said I love you

e-----------------------5-8-5---9-8-----5-8-5-----5-8-7-----5-8-5-----5-8-5-|
B-------------------5-8-------5-----5-8-------5-8-------5-8-------5-8-------|
G---------------7b9---------------------------------------------------------|
D---------------------------------------------------------------------------|
A---------------------------------------------------------------------------|
E---------------------------------------------------------------------------|
Love you

e-----------------------5-8-5---9-8-----5-8-5-----5-8-7-----5-8-5-----5-8-5-|
B-------------------5-8-------5-----5-8-------5-8-------5-8-------5-8-------|
G---------------7b9---------------------------------------------------------|
D---------------------------------------------------------------------------|
A---------------------------------------------------------------------------|
E---------------------------------------------------------------------------|
Lord I love you

e---------5-8-5---9-8-----5-8-5-----5-8-7-----5-8-5-----5-8-5-|
B-----5-8-------5-----5-8-------5-8-------5-8-------5-8-------|
G-7b9---------------------------------------------------------|
D-------------------------------------------------------------|
A-------------------------------------------------------------|
E-------------------------------------------------------------|
NOTE: Theres a lot going on here, obviously some improvisation.
---- Do some improv of your own from where he says "Said I love you",
use the lines above as a rough guide only.
----------------

e-7/8-8-8-8-8-8--9-9-9-9--10-10-10-10--11-|
B-6/7-7-7-7-7-7--8-8-8-8---9--9--9--9--10-|
G-7/8-8-8-8-8-8--9-9-9-9--10-10-10-10--11-|
D-----------------------------------------|
A-----------------------------------------|
E-----------------------------------------|
d u d u d u d u d u d u d u d
Tap to rate this tab
 
# A B C D E F G H I J K L M N O P Q R S T U V W X Y Z