Song name
# A B C D E F G H I J K L M N O P Q R S T U V W X Y Z

Jimi Hendrix - Cherokee Jam tab

jimi hendrix: cherokee jam unplugged
his guitar insnt tuned to anything specific. you have to match your strings tuning with his.

this isnt the entire song but it goes up until 1:28 because my mom kicked me off 
the computer so im calling it the intro

0:00-0:16
|-----------1---------1---------1---------1----4---------------x-x----------|
|-----------1---------1---------1---------1---4---6------------3-3------4---|
|-2-2-x-2-2-2-2-2-2-2-2-2-2-2-2-2-2-2-2-2-2--5------3b4-3b4r3--3-3--3/5---5-|
|-3-3-x-3-3---3-3-3-3---3-3-3-3---3-3-3-3----------------------3-3----------|
|-3-3-x-3-3---3-3-3-3---3-3-3-3---3-3-3-3----------------------1-1----------|
|-1-1-x-1-1---1-1-1-1---1-1-1-1---1-1-1-1----------------------x-x----------|

0:16-0:28
|-x-x-----------x-x-x-x-x----4---------------------x-x-------------x-x-|
|-x-x------4----3-3-x-x-x---4---6-4----------------3-3--------4----x-x-|
|-2-2--3/5---5--3-3-x-2-x--5---------3b4-3b4r3-----3-3--3-3/5---5--2-2-|
|-3-3-----------3-3-x-3-x--------------------------3-3-------------3-3-|
|-3-3-----------3-3-x-3-x--------------------------1-1-------------3-3-|
|-1-1-----------1-1-x-1-x--------------------------x-x-------------1-1-|

0:28-0:36
|----------------x-x-----------------6----------4---------1-----|
|---------4------x-x-----------------6----------4---------1-----|
|-3-3-3/5---4/5--2-2-----------------7-x-x------3-x-x-----2-x-x-|
|----------------3-3-----------------8-x-x------6-x-x-----3-x-x-|
|----------------3-3-----------------8-x-x------6-x-x-----3-x-x-|
|----------------1-1--x-1-1-4-0--6-6-6-x-x--4-4-4-x-x-1-1-1-x-x-|

0:36-0:43
|---------------------x-x-x-----x-x-x-----x-x-x------------------|
|------46-------------8-x-x-----6-x-x-----3-x-x-------6----------|
|-3-3/5--5-3b4r3------8-x-x-----6-x-x-----3-x-x--3-3/5-5-3b4r3\1-|
|---------------------8-x-x-----6-x-x-----3-x-x------------------|
|-----------------6-6-6-x-x-4-4-4-x-x-1-1-1-x-x------------------|
|----------------------------------------------------------------|

0:43-0:54
|---4-----------------------------x-x-----------------------x-x--|
|--4---6-4-----------------4------x-x-----------------------x-x--|
|-5--------3b4-3b4r3---3/5--------2-2-----18-15-13-----13\--2-2--|
|---------------------------------3-3--/20--------13-15-----3-3--|
|----------------------------8v\--3-3-----------------------3-3--|
|---------------------------------1-1-----------------------1-1--|

0:54-1:05
|-------------------------------x-x-------------x-x-------------x-x-x-x-x-|
|-------------------------------3-3-------------x-x-------------3-3-x-x-x-|
|--------13---------------------3-3-------------2-2-------------3-3-x-2-x-|
|------13----13h15-13-----------3-3------13-----3-3------13-----3-3-x-3-x-|
|-13/15---------------13b14r13--1-1-13/15--15\--3-3-13/15--15\--1-1-x-3-x-|
|-------------------------------x-x-------------1-1-------------x-x-x-1-x-|

1:05-1:15
|-----------------------------x-x-------------x-x----------------x-x-|
|-----------------------------3-3-------------x-x----------------3-3-|
|--------13-------------------3-3---------12--2-2---------13\12--3-3-|
|------13---13h15-13----------3-3-------13----3-3-------13-------3-3-|
|-13/15-------------13b14r13--1-1--13/15------3-3--13/15---------1-1-|
|-----------------------------x-x-------------1-1----------------x-x-|

1:15-1:21
|-----------------x------------x----------x--------------------------|
|-----------------x------------x----------x--------------------------|
|-----------------15-x-x-------13-x-x-----10-x-x---------8h10p8------|
|------13-13------x--x-x-------x--x-x-----x--x-x-----8h10------10p8--|
|-13/15-----13-13-13-x-x-11-11-11-x-x-8-8-8--x-x-8h10----------------|
|-----------------x--x-x-------x--x-x-----x--x-x---------------------|

1:21-1:28
|-----x-\x-----x-\x-----x------------------|
|-----x-\x-----x-\x-----x-------4----------|
|-----8-\6-----6-\3-----3--3-3/5-5-3b4r3\1-|
|-----x-\x-----x-\x-----x------------------|
|-6-6-6-\4-4-4-4-\1-1-1-1------------------|
|-----x-\x-----x-\x-----x------------------|
Tap to rate this tab
 
# A B C D E F G H I J K L M N O P Q R S T U V W X Y Z