Guitaretab - guitar tabs
Song name
# A B C D E F G H I J K L M N O P Q R S T U V W X Y Z

Jimi Hendrix - I Dont Live Today tab

e||--------------------|
B||--------10-10-9-----|
G||--------8--8--8-8---|
D||----9---9--9--9-9---|2x
A||-/6-----------------|
E||-----7--------------|
[ Tab from: http://www.guitaretab.com/j/jimi-hendrix/67688.html ]
                  Will I live tomorrow? 
                  Well, I just canít say
e||---------------|----------|
B||---------------|----------|
G||---------------|----------|
D||-7-7-----------|----------|
A||-----9-7-------|-9--------|
E||---------10-7--|-7--------|
                  Will I live tomorrow?
e||--------------|---------------|
B||--------------|---------------|
G||--------------|---------------|
D||-7-7----------|---------------|
A||-----9-7------|-7-------------|
E||---------10-7-|-5-------------|
                  Well, I just canít say
e||--------------|---------------|
B||--------------|---------------|
G||--------------|---------------|
D||-7-7----------|---------------|
A||-----9-7------|-9-------------|
E||---------10-7-|-7-------------|
                  But I know for sure
e||--------------|---------------|
B||--------------|---------------|
G||--------------|---------------|
D||-7-7----------|---------------|
A||-----9-7------|-4-------------|
E||---------10-7-|-2-------------|
                  I donít live today
e||--------------|---------------|
B||--------------|---------------|
G||--------------|---------------|
D||-7-7----------|---------------|
A||-----9-7------|-9-------------|
E||---------10-7-|-7-------------|

No sun cominí through my windows
Feel like Iím liviní at the bottom of a grave
No-ho sun cominí through my windows
Feel like Iím liviní at the bottom of a grave
I wish youíd hurry up and rescue me
                 So I can be on my miserable way
e||-------------|--------------|
B||-------------|--------------|
G||---------7-7-|--------------|
D||-9-9-7-------|-9-7----------|
A||-------9-----|-----9-7------|
E||-------------|---------10-7-|
     I donít      Live today
e||--------------------|
B||--10-10-----10-10---|
G||- B9óB9-----B9-B9---|
D||--------------------|
A||--------------------|
E||--------------------|
Maybe tomorrow, I just canít say, but, uh
e||--------------------|
B||--10-10-----10-10---|
G||- B9óB9-----B9-B9---|
D||--------------------|
A||--------------------|
E||--------------------|
I donít Live today
Itís such a shame to waste your time away like this

Solo

I donít Live today
Maybe tomorrow, I just canít tell you baby, but, uh
Oh, I donít Live today
Its such a shame to spend the time
Away like this

e||----------------|--------------|
B||----------------|--------------|
G||----------------|--------------|
D||-7-7------------|-7-7----------|2x
A||-----9-7--------|----9-7-------|
E||---------10-7-7-|-------10-7-7-|

Solo


Related for I Dont Live Today tab