Song name
# A B C D E F G H I J K L M N O P Q R S T U V W X Y Z

Jimi Hendrix - Radio Of Jingle tab

Radio Of Jingle
Jimi Hendrix

     G A

eb|--3--/---5---X-X-X-X--|
Bb|--3--/---5---X-X-X-X--|  Verse
Gb|--4--/---5---X-X-X-X--|
Db|--5--/---7---X-X-X-X--|
Ab|--5--/---7---X-X-X-X--|     5x
Eb|--3--/---5---X-X-X-X--|

                            G     A

eb|-------------------------3--/--5--|
Bb|-5-----5-------5---------3--/--5--|  Chorus
Gb|-7(9)--7(9)----7(9)------4--/--6--|
Db|-------------------------5--/--7--|
Ab|-------------------------5--/--7--|    5x
Eb|-------------------------3--/--5--|


eb|---------------|  "Thats all folks!" riff
Bb|---------------|
Gb|--2------------|
Db|----4-3-2------|
Ab|-----------5-7-|
Eb|---------------|


Lyrics
(Spoken Intro)


1,2,3,4...(Verse)

Radio One
Your the only one
For me...

(Chorus)

Just ...
Make ...
Radio one
You stole ..
But I love ...

(Chorus)

(Thats all riff)
(Spoken)
You can fade out before that part.



Legend
Ab|---------------|   Bend on the 7th fret till it sounds like the 9th
Eb|--7(9)---------|   Other words, bend a full step.


Ab|---X--X--------|   Strum muted strings.
Eb|---X--X--------|

Ab|--5/7-----------|   Slide 3rd fret power chord to 5th fret power chord
Eb|--3/5-----------|
Tap to rate this tab
# A B C D E F G H I J K L M N O P Q R S T U V W X Y Z