Guitaretab - guitar tabs
Song name
# A B C D E F G H I J K L M N O P Q R S T U V W X Y Z

Jimi Hendrix - Cherokee Jam tab

-------------------------------------------------------------------------------
	       CHEROKEE JAM (ACCOUSTIC & UNPLUGGED) - JIMI HENDRIX
-------------------------------------------------------------------------------
Tabbed by: EXP.HENDRIX 
Email:BEN.LEPONGE@HOTMAIL.FR

Tuning: NORMAL OU UN DEMI TON EN DESSOUS 

Je ne joue pas depuis tres longtemps et ceci est ma premiere tab alors soyez
indulgent ! 

C'est evidemment une ebayche a completer, je n'ai jamais trouver cette tab 
transcrite auparavant (chanson pirate). donc a vos guitare, a vos ampli 
et bon courage !

Je vais essayer de bosser dessus un peu plus mais je pense pas que ca sera parfait
donc dans tout les cas aidez moi !

00:00
e|---------0----------0----------0----------0---|
B|---------8----------8----------8----------8---|
G|---------7----------7----------7----------7---|
D|-6-6-6-6---6-6-6--6---6-6-6--6---6-6-6--6-----|
A|-7-7-7-7---7-7-7--7---7-7-7--7---7-7-7--7-----|
E|-0-0-0-0---0-0-0--0---0-0-0--0---0-0-0--0-----|
[ Tab from: http://www.guitaretab.com/j/jimi-hendrix/92044.html ]
00:11
e|-------------------------------------------------------------------------|
B|-------------------------------------------------------------------------|
G|------12---9/7----------------7-------------7----------------12---9/7----|
D|-9-12----------8-7---6-6--7/9---9--6-6--7/9---9--6-6-6--9-12----------8-7|
A|---------------------7-7-----------7-7-----------7-7-7-------------------|
E|--------0------------0-0-----------0-0-----------0-0-0-------------------|

00:24                                      
e|-------------------------------------0-|
B|-------------------------------------8-|
G|------------7---------------7--------7-|
D|-6-6--7-7/9---9--6-6--7-7/9---9--6-6---|
A|-7-7-------------7-7-------------7-7---|
E|-0-0-------------0-0-------------0-0---|

ensuite utilisez ces 3 accords en jouant surtout sur les basses

e|-5--3--0-----------------------------------------------------------------|
B|-5--3--8-----------------------------------------------------------------|
G|-6--4--7-----------------------------------------------------------------|
D|-7--5--6-----------------------------------------------------------------|
A|-7--5--7-----------------------------------------------------------------|
E|-5--3--0-----------------------------------------------------------------|

La suite au prochain episode

| /  slide up
| \  slide down
| h  hammer-on
| p  pull-off
| ~  vibrato
| +  harmonic
| x  Mute note
===============================================================================
Related for Cherokee Jam tab
Advertisement will be closed in 10 seconds