Song name
# A B C D E F G H I J K L M N O P Q R S T U V W X Y Z

Jimmies Chicken Shack - The Quiet Ones tab

Tuning: Drop D

|---------------------------------------------------------------------------|
|---------------------------------------------------------------------------|
|-------------------------------------12s11------9s11----0------------------|
|-----9-------12-----12p11-----0-----------------------0--------------------|
|---7-------9----9---------12---------10s9-------7s9------------------------|
|-7-----7s9-----------------------0----------0------------------------------|

|---------------------------------------------------------------------------|
|---------------------------------------------------------------------------|
|----------------------------------------12s11-----11s7----0----------------|
|-----7-------12-----11h12p11p0-----0--------------------0------------------|
|---5-------9----9---------------12------10s9------9s5----------------------|
|-5-----5s9---------------------------0--------0----------------------------|
Tap to rate this tab
 
# A B C D E F G H I J K L M N O P Q R S T U V W X Y Z