Guitaretab - guitar tabs
Song name
# A B C D E F G H I J K L M N O P Q R S T U V W X Y Z

Jimmies Chicken Shack - High tab

Jimmies Chicken Shack - High
Transcribed by Steve P - general@subnetsystems.com
Ok, this song is definately in drop D, so tune accordingly.  If you are not playing
it in drop D, then you are not playing 'High'.  Heh`.
Listen for muting during certain parts and pay attention to the dynamics. 
Since this song is only a few chords, dynamics is what it's all about.
If you want to add the high D sting, be my guest; it's the same fret throughout
the song as the rest of 'em.

Intro 
e-|-------------------|
B-|-------------------|
G-|-------------------|  Repeat x4
D-|-------------------|
A-|2---3--3---5p0-----|   'p' means 'pull off'
D-|2---3--3---5p0-----|

Main Riff (verse/chourus)
e-|-------------------|
B-|-------------------|	    Repeat x40
G-|-------------------|     
D-|-------------------|     
A-|2---3--3---5p0-----|     
D-|2---3--3---5p0-----|

Bridge 1
e-|---------------------------------------|
B-|---------------------------------------|
G-|---------------------------------------|   
D-|---------------------------------------|   Repeat x1
A-|5--5-6--6-5--5-8--8-5--5-6--6-5--5-3-3-|
D-|5--5-6--6-5--5-8--8-5--5-6--6-5--5-3-3-|

Solo (rhythm only.  See other tabs for lead.)
[ Tab from: http://www.guitaretab.com/j/jimmies-chicken-shack/9349.html ]
e-|-------------------|
B-|-------------------|
G-|-------------------|
D-|-------------------|  Repeat x8
A-|2---3--3---5p0-----|
D-|2---3--3---5p0-----|

More Main Riff (verse/chourus)
e-|-------------------|
B-|-------------------|	    Repeat x16
G-|-------------------|     
D-|-------------------|     
A-|2---3--3---5p0-----|    
D-|2---3--3---5p0-----|

Bridge 2

e-|---------------------------------------|
B-|---------------------------------------|
G-|---------------------------------------|
D-|---------------------------------------|   Repeat x6
A-|2-2--2-3--2-2--2-5--2-2--2-3--2-2--2-0-|
D-|2-2--2-3--2-2--2-5--2-2--2-3--2-2--2-0-|

e-|-------------------|
B-|-------------------|	    
G-|-------------------|     Repeat x8
D-|-------------------|     
A-|2---3--3---5p0-----|    
D-|2---3--3---5p0-----|

End

e-|-------------------------------------------|
B-|-------------------------------------------|
G-|-------------------------------------------|
D-|-------------------------------------------|   Repeat x2
A-|2-2--2-3--2-2--2-5--2-2--2-3--2-2--2-12-12-|
D-|2-2--2-3--2-2--2-5--2-2--2-3--2-2--2-12-12-|

e-|-------------------|
B-|-------------------|	    
G-|-------------------|     Repeat x7
D-|-------------------|     
A-|2---3--3---5p0-----|    
D-|2---3--3---5p0-----|

e-|-------------------|
B-|-------------------|	    
G-|-------------------|     repeat x1
D-|-------------------|     
A-|2---3--3---5-------|    
D-|2---3--3---5-------|
Related for High tab