Guitaretab - guitar tabs
Song name
# A B C D E F G H I J K L M N O P Q R S T U V W X Y Z

Jimmies Chicken Shack - High2 tab

Date: Wed, 03 Dec 1997 21:20:28 -0700
From: Mutilator 
Subject: TAB: High by Jimmies Chicken Shack


Jimmies Chicken Shack - High
Transcribed by Chris Schwerdt - chriss@inet-1.com
This song really kicks some ass, hope you enjoy the tab.
This is my version of how the song goes, there is another one
here but it just didn't sound quite right to me.

Intro - Clean Guitar
e-|-------------------|
B-|-------------------|
G-|-------------------| x4
D-|2---4--4-/-5-\-2---|
A-|2---4--4-/-5-\-2---|
E-|0---2--2-/-3-\-0---|

Main Riff - Major Distortion. :)
e-|-------------------|
B-|-------------------|
G-|-------------------| x40
D-|2---4--4-/-5-\-2---|
A-|2---4--4-/-5-\-2---|
E-|0---2--2-/-3-\-0---|

Bridge - Distorted
e-|---------------------------|
B-|---------------------------|
G-|---------------------------|
D-|4-5-5-4-4-7-7-4-4-5-5-4-4-2|
A-|4-5-5-4-4-7-7-4-4-5-5-4-4-2|
E-|2-3-3-2-2-5-5-2-2-3-3-2-2-0|

Repeat Main Riff 24x

Repeat Bridge 6x

Repeat Main Riff 8x (There is a big solo while you play this)

Repeat Bridge 2x

Repeat Main Riff 8x

Outro - Distortion
e-|-------------|
B-|-------------|
G-|-------------|
D-|2---4--4--5--|
A-|2---4--4--5--|
E-|0---2--2--3--|
[ Tab from: http://www.guitaretab.com/j/jimmies-chicken-shack/9350.html ]
Related for High2 tab